» » »

Nouvelle Vague - In A Manner Of Speaking Tabs

Artists:  A B C D E F G H I J K L M N O P Q R S T U V W X Y Z # 

In A Manner Of Speaking Tabs

(ver. 1) Click to play this song!
Nouvelle Vague
 Rating:
3.3/5 (6 votes)

 In A Manner Of Speaking lessons Tabs too difficult? Try these video lessons and learn fast
 
                Nouvelle Vague – In A Manner Of Speaking (Tuxedomoon Cover)

Capo 6th fret

Am:    002210
C/G:   332010
C/F:   103210
E*       020230
E2*     020120

Listen to the track to find out the proper timings of everything, on the C/F chord, I 
it easier to hold down the 1st fret of the E string with my thumb, and thats what the
guitarist seemed to do live. I'm pretty sure its not a 100% correct, but close enough, 
if anyone wants to tell me the actual chord names, then that would be awesome.

The whole melody is repeated through out, with a bit of variation on the last bit I 
any corrections welcome, and wooo to my first tab :D.

Happy playing (jake1990)


       Am
e|-------------------------------------------------------------|
B|------1-----------1----------1--------------1----------------|
G|------2-----------2----------2--------------2----------------|
D|------2-----------2----------2--------------2----------------|
A|---0-----0--------------0----------0-------------------------|
E|-------------0-------0-----------------0---------0-----------|

      C/G
e|-------------------------------------------------------------|
B|---------1-------------1------------1-----------1------------|
G|---------0-------------0------------0-----------0------------|
D|---------2-------------2 ----------- 2-----------2-----------|
A|-------------------3--------3---------------3----------------|
E|------3--------3---------------3---------3-----------3-------|

       C/F
e|-------------------------------------------------------------|
B|-------1----------1-----------1------------1-----------------|
G|-------2----------2-----------2------------2-----------------|
D|-------3----------3-----------3------------3-----------------|
A|---------------0--------0--------------0---------------------|
E|--1---------1--------------1-------1-----------1-------------|

      E*                       E2*
e|-------------------------------------------------------------|
B|--------3------3---------3---------3-------------------------|
G|--------2------2---------1---------1-------------------------|
D|--------0------0---------0---------0-------------------------|
A|------------------------------------------2------------------|
E|---0-------0------0--0-------00------------------------------|
            
Submit corrections


        In A Manner Of Speaking lessons Hard to play? Try these video lessons and learn fast In A Manner Of Speaking lessons
        
↑ Back to top | Tablatures and chords for acoustic guitar and electric guitar, ukulele, drums are parodies/interpretations of the original songs. You may use it for private study, scholarship, research or language learning purposes only