Home » N » Nouvelle Vague »

Nouvelle Vague - In A Manner Of Speaking Tabs

Artists:  A B C D E F G H I J K L M N O P Q R S T U V W X Y Z # 

In A Manner Of Speaking Tabs

(ver. 2) Click to play this song!
Nouvelle Vague
                Nouvelle Vague – In A Manner Of Speaking (Tuxedomoon Cover)

Capo 5th fret

Am:    002210
C/G:   332010
C/F:   132010
Esus4: 022200
E:     022100

This melody is played throughout the whole song, in the verses as well as in the chorus. 
to the song for the Bossa Nova Rhythm and the timing of the voice.


       Am                                C/G
e|---------------------------------|---------------------------------|
B|-------1-----------1-------------|-------1-----------1-------------|
G|-------2-----------2-------------|-------0-----------0-------------|
D|-------2-----2-----2-----2-------|-------2-----2-----2-----2-------|
A|-----0---0-------0---0-----0-----|-----------3---3-------3---------|
E|-----------0---0-------0---------|-----3---3-------3---3-----3-----|

       C/F                               Esus4       E
e|---------------------------------|---------------------------------|
B|-------1-----------1-------------|-------0-----0-----0-----0-------|
G|-------0-----------0-------------|-------2-----2-----1-----1-------|
D|-------2-----2-----2-----2-------|-------2-----2-----2-----2-------|
A|-----------3---3-------3---------|---------------------------------|
E|-----1---1-------1---1-----1-----|-----0---0-0---0-0---0-0---0-----|
            
Submit corrections

↑ Back to top | Tablatures and chords for acoustic guitar and electric guitar, ukulele, drums are parodies/interpretations of the original songs. You may use it for private study, scholarship, research or language learning purposes only