Home » N » Notorious Big »

Notorious Big - Big Poppa Tabs

Artists:  A B C D E F G H I J K L M N O P Q R S T U V W X Y Z # 

Big Poppa Tabs

(ver. 3) Click to play this song!
Notorious Big
-------------------------------------------------------------------------------
                             Big Poppa - Notorious B.I.G
-------------------------------------------------------------------------------

Tuning:Standard

e|-------7s8-7--5-3-5-------3------------------------------------------------|
B|----5----------------3--5--------------------------------------------------|
G|---------------------------------------------------------------------------|
D|---------------------------------------------------------------------------|
A|---------------------------------------------------------------------------|
E|---------------------------------------------------------------------------|

e|-------7s8-7--5--3-----------9-7-9--10--12---------------------------------|
B|----5----------------------------------------------------------------------|
G|---------------------------------------------------------------------------|
D|---------------------------------------------------------------------------|
A|---------------------------------------------------------------------------|
E|---------------------------------------------------------------------------|

s = slide 
            
Submit corrections

↑ Back to top | Tablatures and chords for acoustic guitar and electric guitar, ukulele, drums are parodies/interpretations of the original songs. You may use it for private study, scholarship, research or language learning purposes only