» » »

Norma Jean - Shaunluu Tabs

Artists:  A B C D E F G H I J K L M N O P Q R S T U V W X Y Z # 

Shaunluu Tabs

(ver. 2) Click to play this song!
Norma Jean
 Rating:
4/5 (4 votes)

 Shaunluu lessons Tabs too difficult? Try these video lessons and learn fast
 
                ----------------------------------------------------------------------------
                             Shaunluu by Norma Jean
----------------------------------------------------------------------------
Tuning: C# G# C# F# A# D#  (Drop D and then half step down on every string)
Norma Jean has 2 guitars but I arranged this tab for one.

| /  slide up
| \  slide down
| h  hammer-on
| p  pull-off
| ~  vibrato
| +  harmonic
| x  Mute note

Intro x2
|----------------------------------------------------------------------------|
|-12-12-12-12-12-12-12-12-10-10-10-10-10-10-10-10-5-5-5-5-5-5-5-5-5-5-5-5-5--|
|---9--9--9--9--9--9--9--9--7--7--7--7--7--7--7--7-2-2-2-2-2-2-2-2-2-2-2-2-2-|
|----------------------------------------------------------------------------|
|----------------------------------------------------------------------------|
|----------------------------------------------------------------------------|

Main riff
|---------------------------------------------------------------------------|
|-----------5-4-0-4-5-5-0-----------5-5-0-4-5-5-0-----------5-4-0-4-5-5-0---|
|---------------------------------------------------------------------------|
|-2-2-x-2-2---------------2-2-x-2-2---------------2-2-x-2-2-----------------|
|-2-2-x-2-2---------------2-2-x-2-2---------------2-2-x-2-2-----------------|
|-2-2-x-2-2---------------2-2-x-2-2---------------2-2-x-2-2-----------------|

|---------------------------------------------------------------------------|
|-----------------------------------5-4-0-4-5-5-0-----------5-5-0-4-5-5-0---|
|---------------------------------------------------------------------------|
|-2-2-x-2-2---------------2-2-x-2-2---------------2-2-x-5-5-----------------|
|-2-2-x-2-2-0-0-0-0-0-0-0-2-2-x-2-2---------------2-2-x-5-5-----------------|
|-2-2-x-2-2-0-0-0-0-0-0-0-2-2-x-2-2---------------2-2-x-5-5-----------------|

D#|-------------------------------------------------------------------------|
A#|-----------5-4-0-4-5-5-0-----------5-5-0-4-5-5-0-------------------------|
F#|-------------------------------------------------------------------------|
C#|-2-2-x-2-2---------------2-2-x-5-5---------------------------------------|
G#|-2-2-x-2-2---------------2-2-x-5-5---------------------------------------|
C#|-2-2-x-2-2---------------2-2-x-5-5---------------------------------------|

|-----------------------------------------------------------------------------|
|------------------------------1212121212121212-1010101010101010-55555555-----|
|-~~~~~~~6 times~~~~~~~~~------9-9-9-9-9-9-9-9---7-7-7-7-7-7-7-7-22222222-----|
|-9-99--9-99-9-9--9----9------------------------------------------------------|
|-7-77-10-77-7-7-10p7-7h8-----------------------------------------------------|
|-----------------------------------------------------------------------------|

|---------------------------------------------------------------------------|
|-1212121212121212-1010101010101010-55555555--------------------------------|
|-9-9-9-9-9-9-9-9--7-7-7-7-7-7-7-7--22222222--------------------------------|
|----------------------------------------------1212-101010------------------|
|--------------------------------------------0-1010-8-8-8--0----------------|
|--------------------------------------------0-------------0----------------|

Chorus (x2)
|---------------------------------------------------------------------------|
|---------------------------------------------------------------------------|
|-----------------------------------------------~~~~~~~2 times~~~~~---------|
|-2-2-x---2---7--3---2-2-x---2-2-x-x-x-2-2-x----1010101010101010--0---------|
|-2-2-x-0-2-0-7--3---2-2-x-0-2-2-x-x-x-2-2-x-0--1010101010101010--0---------|
|-2-2-x-0-2-0-7--3---2-2-x-0-2-2-x-x-x-2-2-x-0--1010101010101010--0---------|

D#|------------------------------------------------------------------------|
A#|-----------5-4-0--------------------------------------------------------|
F#|------------------------------------------------------------------------|
C#|-2-2-x-2-2-------------then main riff 4 times---------------------------|
G#|-2-2-x-2-2--------------------------------------------------------------|
C#|-2-2-x-2-2--------------------------------------------------------------|

|-~~~~~~~~~~~~~~~2 times~~~~~~~~~~~~~~~~~~~~--------------------------------|
|-1212121212121212-1010101010101010-55555555--------------------------------|
|-9-9-9-9-9-9-9-9--7-7-7-7-7-7-7-7--22222222----------------------- then----|
|--------------------------------------------------1212-101010------chorus--|
|------------------------------------------------0-1010-8-8-8--0-----twice -|
|------------------------------------------------0-------------0------------|


Play this twice
D#|-------------------------------------------------------------------------|
A#|-------------------------------------------------------------------------|
F#|-4-4-4-4--5-5-5-5--7-7-7-7--2-2-2-2--7-7-7-7-----------------------------|
C#|-2-2-2-2--3-3-3-3--5-5-5-5--0-0-0-0--5-5-5-5-----------------------------|
G#|-------------------------------------------------------------------------|
C#|-------------------------------------------------------------------------|

D#|------------------ ~8 times~ --------------------------------------------|
A#|-     ~once~       5-5-5-5-----------------------------------------------|
F#|-4-4-4-4--5-5-5-5--4-4-4-4------(Leading into breakdown)-----------------|
C#|-2-2-2-2--3-3-3-3--2-2-2-2----------2--------2---------------------------|
G#|------------------------------------2--------2---------------------------|
C#|------------------------------------2--------2---------------------------|

Breakdown 8 times full distortion
D#|-------------------------------------------------------------------------|
A#|-------------------------------------------------------------------------|
F#|-------------------------------------------------------------------------|
C#|-2-2-2-2-----------------------------------------------------------------|
G#|-2-2-2-2-----------------------------------------------------------------|
C#|-2-2-2-2-----------------------------------------------------------------|

Breakdown 4 times palm mute
D#|-------------------------------------------------------------------------|
A#|-------------------------------------------------------------------------|
F#|-------------------------------------------------------------------------|
C#|----------2----------2--------------2------then end with previous--------|
G#|----------2----------2--------------2--------riff 8 more times-----------|
C#|--2-2-2-2---2-2-2-2----2-2-2-2--2-2---2----------------------------------|
============================================================================
            
Submit corrections


        Shaunluu lessons Hard to play? Try these video lessons and learn fast Shaunluu lessons
        
↑ Back to top | Tablatures and chords for acoustic guitar and electric guitar, ukulele, drums are parodies/interpretations of the original songs. You may use it for private study, scholarship, research or language learning purposes only