» » »

Norma Jean - Shaunluu Tabs

Artists:  A B C D E F G H I J K L M N O P Q R S T U V W X Y Z # 

Shaunluu Tabs

(ver. 1) Click to play this song!
Norma Jean
 Rating:
4/5 (4 votes)

 Shaunluu lessons Tabs too difficult? Try these video lessons and learn fast
 
                Norma Jean
O' God The Aftermath (Deluxe Edition)
Jordan Rozell
Db Ab Db Gb Bb B




0:00-0:23
|----------------------------------------------------------------------------|
|-12-12-12-12-12-12-12-12-10-10-10-10-10-10-10-10-5-5-5-5-5-5-5-5-5-5-5-5-5--|
|----------------------------------------------------------------------------|
|---9--9--9--9--9--9--9--9--7--7--7--7--7--7--7--7-7-7-7-7-7-7-7-7-7-7-7-7-7-|
|----------------------------------------------------------------------------|
|----------------------------------------------------------------------------|X2


0:24-0:49
|-----------5-4-0-4-5-11-0---------5-4-0-4-5-11-0----------5-4-0-4-5-11-0---|
|-----------5-4-0-4-5-11-0---------5-4-0-4-5-11-0----------5-4-0-4-5-11-0---|
|---------------------------------------------------------------------------|
|-2-2-x-2-2---------------2-2-x-2-2---------------2-2-x-2-2-----------------|
|-2-2-x-2-2---------------2-2-x-2-2---------------2-2-x-2-2-----------------|
|-2-2-x-2-2---------------2-2-x-2-2---------------2-2-x-2-2-----------------|

|-----------------------------------5-4-0-4-5-11-0-----------5-4-0-4-5-11-0-|
|-----------------------------------5-4-0-4-5-11-0-----------5-4-0-4-5-11-0-|
|---------------------------------------------------------------------------|
|-2-2-x-2-2---------------2-2-x-2-2---------------2-2-x-5-5-----------------|
|-2-2-x-2-2-0-0-0-0-0-0-0-2-2-x-2-2---------------2-2-x-5-5-----------------|
|-2-2-x-2-2-0-0-0-0-0-0-0-2-2-x-2-2---------------2-2-x-5-5-----------------|

|-----------5-4-0-4-5-11-0-----------5-4-0-4-5-11-0-----------------------|
|-----------5-4-0-4-5-11-0-----------5-4-0-4-5-11-0-----------------------|
|-------------------------------------------------------------------------|
|-2-2-x-2-2---------------2-2-x-5-5---------------------------------------|
|-2-2-x-2-2---------------2-2-x-5-5---------------------------------------|
|-2-2-x-2-2---------------2-2-x-5-5---------------------------------------|


0:50-1:18
|-------------------------------------|---------------------------------------------------|-------------------|
|--12~---------10~-----------55555555-|-1212121212121212-1010101010101010-55555555--------|-------------------|
|-------------------------------------|---------------------------------------------------|-------------------|
|---9~----------7~-----------77777777-|--9-9-9-9-9-9-9-9--7-7-7-7-7-7-7-7-77777777--------|-10101010-8-8-8----|
|-------------------------------------|---------------------------------------------------|-10101010-8-8-8----|
|-------------------------------------|---------------------------------------------------|-10101010-8-8-8----|
                                      |                                                   |
                                      |-------------------------------|-------------------|
                                      |-------------------------------|-------------------|
                                      |-------------------------------|-------------------|
                                      |-----9p0--5p0-----9p0--5p0-----|-----12p0--10p0----|
                                      |--7-----------0-7-----------7/8|--8--------------8-|
                                      |-------------------------------|-------------------|
|_______________________________|
                                                      X2              


1:19-1:43
|----------------------------------------------------------------------------------------------|
|----------------------------------------------------------------------------------------------|
|----------------------------------------------------------------------------------------------|
|-2-2-x---2---7--3---2-2-x---2-2-x-x-x-2-2-x----1010101010101010--0--1010101010101010--0-------|
|-2-2-x-0-2-0-7--3---2-2-x-0-2-2-x-x-x-2-2-x-0--1010101010101010--0--1010101010101010--0-------|
|-2-2-x-0-2-0-7--3---2-2-x-0-2-2-x-x-x-2-2-x-0--1010101010101010--0--1010101010101010--0-------|X2


1:44-1:59
|-----------5-4-0----|-----------5-4-0-4-5-11-0---------5-4-0-4-5-11-0----------5-4-0-4-5-11-0---|
|-----------5-4-0----|-----------5-4-0-4-5-11-0---------5-4-0-4-5-11-0----------5-4-0-4-5-11-0---|
|--------------------|---------------------------------------------------------------------------|
|-2-2-x-2-2----------|-2-2-x-2-2---------------2-2-x-2-2---------------2-2-x-2-2-----------------|
|-2-2-x-2-2----------|-2-2-x-2-2---------------2-2-x-2-2---------------2-2-x-2-2-----------------|
|-2-2-x-2-2----------|-2-2-x-2-2---------------2-2-x-2-2---------------2-2-x-2-2-----------------|

|-------------------------|
|-------------------------|
|-------------------------|
|-2-2-x-2-2---------------|
|-2-2-x-2-2-0-0-0-0-0-0-0-|
|-2-2-x-2-2-0-0-0-0-0-0-0-|


1:60-2:18
|-------------------------------------|---------------------------------------------------|-------------------|
|--12~---------10~-----------55555555-|-1212121212121212-1010101010101010-55555555--------|-------------------|
|-------------------------------------|---------------------------------------------------|-------------------|
|---9~----------7~-----------77777777-|--9-9-9-9-9-9-9-9--7-7-7-7-7-7-7-7-77777777--------|-10101010-8-8-8----|
|-------------------------------------|---------------------------------------------------|-10101010-8-8-8----|
|-------------------------------------|---------------------------------------------------|-10101010-8-8-8----|
                                      |                                                   |
                                      |-------------------------------|-------------------|
                                      |-------------------------------|-------------------|
                                      |-------------------------------|-------------------|
                                      |-----9p0--5p0-----9p0--5p0-----|-----12p0--10p0----|
                                      |--7-----------0-7-----------7/8|--8--------------8-|
                                      |-------------------------------|-------------------|
|_______________________________|
                                                      X2

2:19-2:42
|----------------------------------------------------------------------------------------------|
|----------------------------------------------------------------------------------------------|
|----------------------------------------------------------------------------------------------|
|-2-2-x---2---7--3---2-2-x---2-2-x-x-x-2-2-x----1010101010101010--0--1010101010101010--0-------|
|-2-2-x-0-2-0-7--3---2-2-x-0-2-2-x-x-x-2-2-x-0--1010101010101010--0--1010101010101010--0-------|
|-2-2-x-0-2-0-7--3---2-2-x-0-2-2-x-x-x-2-2-x-0--1010101010101010--0--1010101010101010--0-------|X2


2:43-3:07
|-------------------------------------------------------------------------|
|-------------------------------------------------------------------------|
|-4-4-4-4--5-5-5-5--7-7-7-7--2-2-2-2--7-7-7-7-----------------------------|
|-2-2-2-2--3-3-3-3--5-5-5-5--0-0-0-0--5-5-5-5-----------------------------|
|-------------------------------------------------------------------------|
|-------------------------------------------------------------------------|X2

|-------------------------------------------------------------------------|
|-------------------5-5-5-5-----------------------------------------------|
|-4-4-4-4--5-5-5-5--4-4-4-4-----------------------------------------------|
|-2-2-2-2--3-3-3-3--2-2-2-2----------2--------2---------------------------|
|------------------------------------2--------2---------------------------|
|------------------------------------2--------2---------------------------|


3:08-3:42
|-----------|
|-----------|
|-----------|
|-2-2-2-2---|
|-2-2-2-2---|
|-2-2-2-2---|X8

|----------0----------0--------------0-----|
|----------0----------0--------------0-----|
|----------0----------0--------------0-----|
|----------2----------2--------------2-----|
|----------2----------2--------------2-----|
|--2-2-2-2---2-2-2-2----2-2-2-2--2-2---2---|X4

|-----------|
|-----------|
|-----------|
|-2-2-2-2---|
|-2-2-2-2---|
|-2-2-2-2---|X8
            
Submit corrections


        Shaunluu lessons Hard to play? Try these video lessons and learn fast Shaunluu lessons
        
↑ Back to top | Tablatures and chords for acoustic guitar and electric guitar, ukulele, drums are parodies/interpretations of the original songs. You may use it for private study, scholarship, research or language learning purposes only