» » »

Norma Jean - Memphis Will Be Laid To Waste Tabs

Artists:  A B C D E F G H I J K L M N O P Q R S T U V W X Y Z # 

Memphis Will Be Laid To Waste Tabs

(ver. 2) Click to play this song!
Norma Jean
 Rating:
4/5 (4 votes)

 Memphis Will Be Laid To Waste lessons Tabs too difficult? Try these video lessons and learn fast
 
                Norma Jean
Memphis Will Be Laid To Waste
Bless the Martyr & Kiss the Child

Tuning:Standard Tuning

Corrected by:Zach Smith ;)..Good song!

Intro
|---------------------
|---------------------
|---------------------
|-----6666666666666666
|-----6666666666666666
|-----4444444444444444

Riff 1		x12
|----------     
|---------4-44444444-
|---------7-77777777-	
|----000-------------		
|----000-------------
|----000-------------
      P.M.  P.M.-|

Riff 2		x8
|----------     
|------------------------  1X
|-----------------------
|------------------------	
|--0-00-0-0-0-0-00-0-0-0---
|-4-4-4-4-4-3-3-3-0-00-0-


|------------------------  7x
|---0-0--0-0---0--0--0------
|-------------------------------   
|--2-2-2-2-2-2-2-2-2--2----
|-4-4-4-4-4-3-3-3-0-00-0-

|--------------------------|13-- <-on
|--------------------------|--13  2nd
|--------------------------|---- Time
|----4-4-4-4-4-------------|----
|----2-2-2-2-0-------------|----
|--------------------------|----

Riff 4	Both guitars   4Xs
|------------------------    
|------------------------
|------------------------	
|-0000---0000---00-------	
|-0000---0000---00-------
|-0000---0000---00-------
 P.M.-| P.M.-|  P.M|

Riff 5		x1
|----------------    
|----------------
|----------------	
|--7/-3-------	
|--7/-3--------
|--5/-1--------

Riff 1		
|------------------- Fast 4X's 
|---------44-4444444 
|---------77-7777777
|----000------------
|----000------------
|----000------------
     P.M.-| P.M.--|
 
  Both Guitars
|--------------------
|------4444444-------
|------7777777-------
|-0000---------------
|-0000---------------
|-0000---------------
 P.M.-|let ring

Riff 6	 Both Guitars
|----------------   4X's
|----------------   
|----------------	
|-00000000---00-00<Dont ring 4th time
|-00000000---00-00<Dont ring 4th time
|-00000000---00-00<Dont ring 4th time
 P.M.----|   P.M--|
      Let ring  Let Ring
 Both guitars
|----------------   
|----------------   
|----------------	
|-00000000---00-00 
|-00000000---00-00        
|-00000000---00-00
 P.M.-----| P.M.--|
 Second Guitar(1st guit. does"---000")
|-------------------------
|-------------------------
|--44444444455555555444444
|--xxxxxxxxxxxxxxxxxxxxxxx
|--22222222233333333222222
|-------------------------
 First Guitar
|--------------------------
|--4----4----4----4--------
|--5----5----5----5--------
|--5----5----5----5--------
|--3----3----3----3--------
|--------------------------

First Starts on "---\44")Then 2nd guitar joins
|----------|------------
|----------|----------
|-----4X's-|-----------
|----------|---666--666-...X's
|--/4-444--|---666--666-
|--/4-444--|---444--000-
  Second Guitar      ^ Do that a few
                       Times
 
First Guitar(2nd guit. does "---664"
|--------------------------
|--4444-4444-4444-4444-----2X's
|--5555-5555-5555-5555-----
|--5555-5555-5555-5555-----
|--3333-3333-3333-3333-----
|--------------------------
  Both guitars
|--------------------------
|--------------------------
|--------------------------
|--7\3---Let ring------------
|--7\3---Let ring------------
|--5\1---Let ring-----------
            
Submit corrections


        Memphis Will Be Laid To Waste lessons Hard to play? Try these video lessons and learn fast Memphis Will Be Laid To Waste lessons
        
↑ Back to top | Tablatures and chords for acoustic guitar and electric guitar, ukulele, drums are parodies/interpretations of the original songs. You may use it for private study, scholarship, research or language learning purposes only