» » »

Norma Jean - Memphis Will Be Laid To Waste Tabs

Artists:  A B C D E F G H I J K L M N O P Q R S T U V W X Y Z # 

Memphis Will Be Laid To Waste Tabs

(ver. 1) Click to play this song!
Norma Jean
 Rating:
4/5 (4 votes)

 Memphis Will Be Laid To Waste lessons Tabs too difficult? Try these video lessons and learn fast
 
                This is my first tab, i'm sure it's not 100% and any suggestions would be welcome.
This is a great song, and Norma Jean rocks, i'm currently working on the rest of the
songs from Bless the Martyr, and help with those would be appreciated too.
NOTE:  DO NOT FOLLOW THE TIMINGS HERE, I DON'T KNOW HOW TO TAB TIMINGS
SO FIGURE IT OUT YOURSELF
Enjoy

Intro
D#|----------     
A#|----------
F#|----------
C#|-----6----
G#|-----6----
C#|-----6----


Riff 1		x12
D#|----------     
A#|---------44
F#|---------77	
C#|----000---		
G#|----000---
C#|----000---

Riff 2		x8
D#|----------     
A#|-----------
F#|-----------	
C#|----------		
G#|--0-0-0-0-0-0-0-0-0--0-0
C#|-4-4-4-4-4-3-3-3-0-00-0-

Riff 3		x2
D#|------------------------    
A#|---7777-------7777----7-
F#|---4444-------4444-----4	
C#|---------0---	------0----	
G#|---------0---------0----
C#|---------0---------0----

Riff 4		x4
D#|------------------------    
A#|------------------------
F#|------------------------	
C#|-0000---0000---00-------	
G#|-0000---0000---00-------
C#|-0000---0000---00-------

Riff 5		x1
D#|----------------    
A#|----------------
F#|----------------	
C#|-8---4----------	
G#|-8---4----------
C#|-8---4----------

Play Riff2 x8 and then slower x4

Riff 6		x12
D#|----------------    
A#|----------------
F#|----------------	
C#|-00000000---00-00	
G#|-00000000---00-00
C#|-00000000---00-00

Play Riff 6 x4 with this
D#|-1---2-1---------    
A#|----------------
F#|----------------	
C#|----------------	
G#|----------------
C#|----------------

Riff 7		x4
D#|----------------    
A#|----------------
F#|----------------	
C#|-8--------------	
G#|-8--------------
C#|-8--------------

Riff 8		x8
D#|----------------    
A#|----------------
F#|----------------	
C#|-----------8888
G#|-----------8888
C#|-slide-up-to-8888

Riff 9		x8
D#|--------------    
A#|--------------
F#|-10101010------	
C#|-10101010------
G#|-8  8  8  8-------
C#|-8  8  8  8-------

Riff 10		x8
D#|-----------------------    
A#|-----------------------
F#|-10101010-------------10	
C#|-10101010-------------10
G#|-8  8  8  8--------------8
C#|-8  8  8  8----slide-up-to-8

Play Riff 9 x8 and then end on
D#|------    
A#|------
F#|------	
C#|-4----
G#|-4----
C#|-4----
            
Submit corrections


        Memphis Will Be Laid To Waste lessons Hard to play? Try these video lessons and learn fast Memphis Will Be Laid To Waste lessons
        
↑ Back to top | Tablatures and chords for acoustic guitar and electric guitar, ukulele, drums are parodies/interpretations of the original songs. You may use it for private study, scholarship, research or language learning purposes only