» » »

Norma Jean - A Grand Scene For A Color Film Tabs

Artists:  A B C D E F G H I J K L M N O P Q R S T U V W X Y Z # 

A Grand Scene For A Color Film Tabs

(ver. 2) Click to play this song!
Norma Jean
 Rating:
4.5/5 (8 votes)

 A Grand Scene For A Color Film lessons Tabs too difficult? Try these video lessons and learn fast
 
                ----------------------------------------------------------------------------
        A Grand Scene for a Color Film-Norma Jean
----------------------------------------------------------------------------


Tuning:Db

e|--------------------------------|
B|--------------------------------|   X4
G|--------------------------------|
D|-/8-8-8-8---8-5-8-5-8-5-8-5---0-|
A|-/0-0-0-0---------------------0-|
E|-/0-0-0-0---------------------0-|
   part1 Both            part2  Guitar 1         part2     Guitar 2
e|-----------------|   -------------------|  12-12-12-12--12-12-12-10-10-10
B|-----------------|   -------------------|  12-12-12-12--12-12-12/10-10-10
G|-----------------|   -------------------|  -----------------------------|
D|-----------------|   3-3-3-3--3-0-3-2-2-|  -----------------------------|
A|-----3-----5-----|   3-3-3-3--3-0-3-2-2-|  -----------------------------|
E|-000---2-2---3-3-|   3-3-3-3--3-0-3-2-2-|  -----------------------------|


part3                      part 4
   rythm chords          ..lets break out the shotguns
e|----------------|    ----------------------------------------------------|
B|----------------|    ---3-3----------------------------------------------|
G|----------------|    ---3-3-----3----3-3---------------------------------|
D|-12--3--0--8----|    -0-3-3--00-3-00-3-3---------------------------------|
A|-12--3--0--8--=-|    -0-1-1--00-1-00-1-1---------------------------------|
E|-12--3--0--8----|    -0------00---00------------------------------------|

parts 1 and 2 again. then part 3. then part 4. then play this riff


                                      strum the pinch harmonic fast
e|-------------------------------------------------------------------------|
B|-------------------------------------------------------------------------|
G|-----------------------------------------------------------17*-----------|
D|-----------------------------------------------------------17*-----------|
A|-----------------------------------------------------------17*-----------|
E|-11-0-11-0-11-0-11--11-0-11----14-0-14-0-14-0----17-0-17-0-17*-----------|

JUST WHAT ARE YOU TRYING TO SAY!!

e|-------------------------------------------------------------------------|
B|-------------------------------------------------------------------------|
G|---------7b=--------------7-7-7-7-7-7------------7b-------33333---33333--|
D|---------x----------------x-x-x-x-x-x------------x--------33333---33333--|
A|000------5b-------0--0000-5-5-5-5-5-5--0000------5b-000-0-11111---11111--|
E|000-12\0----------0--0000--------------0000-12/0----000-0----------------|

e|------------------------------------------------------------------------|
B|--------15b------15------15-15-15-15---15-15-15-15----------------------|
G|---------x-------x-------x--x--x--x----x--x--x--x-----------------------|
D|--0000--12b--0---12-000--12-12-12-12---12-12-12-12----------------------|
A|--0000-------0------000-------------------------------------------------|
E|--0000-------0------000-------------------------------------------------|

e|---------------|
B|---------------|
G|---------------|
D|--12/3---0\8---|
A|--12/3---0\8---|
E|--12/3---0\8---|

then go back to part 3 play it like 8 times. then end on pt 4




God Bless hope this helps
            
Submit corrections


        A Grand Scene For A Color Film lessons Hard to play? Try these video lessons and learn fast A Grand Scene For A Color Film lessons
        
↑ Back to top | Tablatures and chords for acoustic guitar and electric guitar, ukulele, drums are parodies/interpretations of the original songs. You may use it for private study, scholarship, research or language learning purposes only