» » »

Norma Jean - A Grand Scene For A Color Film Tabs

Artists:  A B C D E F G H I J K L M N O P Q R S T U V W X Y Z # 

A Grand Scene For A Color Film Tabs

(ver. 1) Click to play this song!
Norma Jean
 Rating:
4/5 (5 votes)

 A Grand Scene For A Color Film lessons Tabs too difficult? Try these video lessons and learn fast
 
                Band:Norma Jean
Album:Redeemer

Tuning:Db Ab Db Gb Bb B(Typical Norma Jean Tuning)

Whoever Says That NJ's album New Sucks Is An Idiot

Guitar 1-(Scottie)
Guitar 2-(Chris)


Intro:
Guitar 1
B |-------------------------------------------------------------------------|
Bb|-------------------------------------------------------------------------|
Gb|--9-9-9-9-9-9-9---------------------------------12-0-12-0-12-0-12-0-12---|
Db|--0-0-0-0-0-0-0----------------------------------------------------------|
Ab|--0----------------------------------------------------------------------|
Db|--0-----------------------------12b--------------------------------------|
(Just Randomly Bend The 12)


Guitar 2
B |-------------------------------------------------------------------------|
Bb|-------------------------------------------------------------------------|
Gb|---8-8-8-8-8-8-8---------------------------------------------------------|
Db|---0-0-0-0-0-0-0---------------------------------------------------------|
Ab|3//0-0-0-0-0-0-0---------------------------------------------------------|
Db|3//0-0-0-0-0-0-0---------------------------------------------------------|


Guitar 1
B |------------------------------------|
Bb|------------------------------------|
Gb|------------------------------------|
Db|0~----------------------------------|
Ab|0~----------------------------------|
Db|0~----------------------------------|

Guitar 2
B |------------------------------------|
Bb|------------------------------------|
Gb|------------------------------------|
Db|0~----------------------------------|
Ab|0~----------------------------------|
Db|0~----------------------------------|
Tune your Db string really low,and then back in



Verse:Guitar 1 "Sit Down!!"
B |--------------------------------------------------|
Bb|--------------------------------------------------|
Gb|--------------------------------------------------|
Db|--------------------------------------------------|
Ab|--------3----5---0-0-0-0-3------------------------|
Db|0-0-0-0--2-2--3-3----------3-3-3------------------|
   

Both guitars
B |--------------------------------------------------|
Bb|--------------------------------------------------|
Gb|--------------------------------------------------|
Db|--------------------------------------------------|
Ab|--------3----5---0-0-0-0-3------------------------|
Db|0-0-0-0--2-2--3-3----------3-3-3------------------|
   ******


Guitar 2 "Return to sender"
B |-------------------------------------------------------------------------|
Bb|--------------------------------------------------------------------------|
Gb|--------------------------------------------------------------------------|
Db|---------------------------------3/1-3-0-3-2-0----------------------------|
Ab|--------3----5---0-0-0-0-3-------3/1-3-0-3-2-0----------------------------|
Db|0-0-0-0--2-2--3-3----------3-3-3-3/1-3-0-3-2-0----------------------------|
   ******

Guitar 1
B |-------------------------------------------------------------------------|
Bb|----------------------------------12b12b12b12b12b10b10b-------------------|
Gb|----------------------------------12b12b12b12b12b10b10b-------------------|
Db|--------------------------------------------------------------------------|
Ab|--------3----5---0-0-0-0-3------------------------------------------------|
Db|0-0-0-0--2-2--3-3----------3-3-3------------------------------------------|
   ******

pre chorus:
guitar 1
B |-------------------------------------------------------------------------|
Bb|-------------------------------------------------------------------------|
Gb|7-7-7-7-7-/14-14-14-14-14-14-14------------------------------------------|
Db|x-x-x-x-x-/x-x-x-x-x-x-x-x-x-x-------------------------------------------|
Ab|5b5b5b5b5b/12-12-12-12-12-12-12------------------------------------------|
Db|-------------------------------------------------------------------------|


Guitar 2
B |-------------------------------------------------------------------------|
Bb|-------------------------------------------------------------------------|
Gb|-------------------------------------------------------------------------|
Db|0~-----------------------------------------------------------------------|
Ab|0~-1111-0000/00----------------------------------------------------------|
Db|0~-3333-2222/55----------------------------------------------------------|


chorus: guitar 1
B |-------------------------------------------------------------------------|
Bb|10p0-10p0-------------13p0-----------------------------------------------|
Gb|---------0-10p0-10p0-----------------------------------------------------|
Db|---------------------------12p0-12p0-------------------------------------|
Ab|-------------------------------------------------------------------------|
Db|-------------------------------------------------------------------------|

chorus:guitar 2 (figure out strumming)
b |-------------------------------------------------------------------------|
Bb|-------------------------------------------------------------------------|
Gb|-------------------------------------------------------------------------|
Db|12-3-0-8-----------------------------------------------------------------|
Ab|12-3-0-8-----------------------------------------------------------------|
Db|12-3-0-8-----------------------------------------------------------------|


post chorus:both guitars "Lets break out the shotguns!!!"
B |-------------------------------------------------------------------------|
Bb|-------------------------------------------------------------------------|
Gb|--3-3---3-----3----------------------------------------------------------|
Db|0-3-3-0-3-0-0-3----------------------------------------------------------|
Ab|0-1-1-0-1-0-0-1----------------------------------------------------------|
Db|0-----0---0-0------------------------------------------------------------|
             * *

Verse:
Guitar 2 "Return to sender"
B |-------------------------------------------------------------------------|
Bb|--------------------------------------------------------------------------|
Gb|--------------------------------------------------------------------------|
Db|---------------------------------3/1-3-0-3-2-0----------------------------|
Ab|--------3----5---0-0-0-0-3-------3/1-3-0-3-2-0----------------------------|
Db|0-0-0-0--2-2--3-3----------3-3-3-3/1-3-0-3-2-0----------------------------|
   ******

Guitar 1
B |-------------------------------------------------------------------------|
Bb|----------------------------------12b12b12b12b12b10b10b-------------------|
Gb|----------------------------------12b12b12b12b12b10b10b-------------------|
Db|--------------------------------------------------------------------------|
Ab|--------3----5---0-0-0-0-3------------------------------------------------|
Db|0-0-0-0--2-2--3-3----------3-3-3------------------------------------------|
   ******

at the end of the second verse both guitars play this
B |-------------------------------------------------------------------------|
Bb|-------------------------------------------------------------------------|
Gb|-------------------------------------------------------------------------|
Db|8-8-8-8-8-8------8-8-8-8-8-8-8-------------------------------------------|
Ab|8-8-8-8-8-8------8-8-8-8-8-8-8-------------------------------------------|
Db|8-8-8-8-8-8------8-8-8-8-8-8-8-------------------------------------------|

pre chorus:
guitar 1
B |-------------------------------------------------------------------------|
Bb|-------------------------------------------------------------------------|
Gb|7-7-7-7-7-/14-14-14-14-14-14-14------------------------------------------|
Db|x-x-x-x-x-/x-x-x-x-x-x-x-x-x-x-------------------------------------------|
Ab|5b5b5b5b5b/12-12-12-12-12-12-12------------------------------------------|
Db|-------------------------------------------------------------------------|


Guitar 2
B |-------------------------------------------------------------------------|
Bb|-------------------------------------------------------------------------|
Gb|-------------------------------------------------------------------------|
Db|0~-----------------------------------------------------------------------|
Ab|0~-1111-0000/00----------------------------------------------------------|
Db|0~-3333-2222/55----------------------------------------------------------|



chorus: guitar 1
B |-------------------------------------------------------------------------|
Bb|10p0-10p0-------------13p0-----------------------------------------------|
Gb|---------0-10p0-10p0-----------------------------------------------------|
Db|---------------------------12p0-12p0-------------------------------------|
Ab|-------------------------------------------------------------------------|
Db|-------------------------------------------------------------------------|

chorus:guitar 2 (figure out strumming)
b |-------------------------------------------------------------------------|
Bb|-------------------------------------------------------------------------|
Gb|-------------------------------------------------------------------------|
Db|12-3-0-8-----------------------------------------------------------------|
Ab|12-3-0-8-----------------------------------------------------------------|
Db|12-3-0-8-----------------------------------------------------------------|


post chorus:both guitars "Lets break out the shotguns!!!"
B |-------------------------------------------------------------------------|
Bb|-------------------------------------------------------------------------|
Gb|--3-3---3-----3----------------------------------------------------------|
Db|0-3-3-0-3-0-0-3----------------------------------------------------------|
Ab|0-1-1-0-1-0-0-1----------------------------------------------------------|
Db|0-----0---0-0------------------------------------------------------------|
             * *


Brige:guitar 2
B |-------------------------------------------------------------------------|
Bb|-------------------------------------------------------------------------|
Gb|-------------------------------------------------------------------------|
Db|-------------------------------------------------------------------------|
Ab|-------------------------------------------------------------------------|
Db|12p0-12p0-12----12p0-12p0-12---------12p0-12p0-12-12p0-12p0-12p0-12p0-12-|

Brige:guitar 1
B |-------------------------------------------------------------------------|
Bb|--------------------------------------------------------------------------|
Gb|-------------------------------14-----------------------------------------|
Db|-------------------------------x------------------------------------------|
Ab|-------------------------------12-----------------------------------------|
Db|------------------------------------12p0-12p0-12-14p0-14p0-17p0-17p0-17p0-|

Guitar 1"What are you trying to say"
B |-------------------------------------------------------------------------|
Bb|-------------------------------------------------------------------------|
Gb|14-14-14-14-14-14-14-14-14-14--------------------------------------------|
Db|x-x-x-x-x-x-x-x-x-x-x-x-x-x-x--------------------------------------------|
Ab|12-12-12-12-12-12-12-12-12-12--------------------------------------------|
Db|-------------------------------------------------------------------------|


both guitars:
b |-------------------------------------------------------------------------|
Bb|---------------------------------------------------------15--------15----|
Gb|--------7---------7-7-7----------3-3-3---3-3-3-----------x---------x-----|
Db|0-0-0-//x--0-0-0--x-x-x---0-0-0--3-3-3---3-3-3---0-0-0---12--0-0-0-12----|
Ab|0-0-0-//5--0-0-0--5-5-5---0-0-0--1-1-1---1-1-1---0-0-0-------0-0-0-------|
Db|0-0-0-//---0-0-0----------0-0-0------------------0-0-0-------0-0-0-------|
   * * *      * * *          * * *                  * * *       * * *

Guitar 1
B |-------------------------------------------------------------------------|
Bb|-------------------------------------------------------------------------|
Gb|-----------------14-14-14-14-14------------------------------------------|
Db|0~----------------x--x--x--x--x------------------------------------------|
Ab|0~---------------12-12-12-12-12------------------------------------------|
Db|0~--Pick-scr*pe----------------------------------------------------------|


Guitar 2
B |-------------------------------------------------------------------------|
Bb|-------------------------------------------------------------------------|
Gb|-------------------------------------------------------------------------|
Db|-------------------------8888--------------------------------------------|
Ab|-------------------------8888--------------------------------------------|
Db|12/3-3-0/8---12/3-3-0/8--8888--------------------------------------------|
                            ****

chorus: guitar 1
B |-------------------------------------------------------------------------|
Bb|10p0-10p0-------------13p0-----------------------------------------------|
Gb|---------0-10p0-10p0-----------------------------------------------------|
Db|---------------------------12p0-12p0-------------------------------------|
Ab|-------------------------------------------------------------------------|
Db|-------------------------------------------------------------------------|

chorus:guitar 2 (figure out strumming)
b |-------------------------------------------------------------------------|
Bb|-------------------------------------------------------------------------|
Gb|-------------------------------------------------------------------------|
Db|12-3-0-8-----------------------------------------------------------------|
Ab|12-3-0-8-----------------------------------------------------------------|
Db|12-3-0-8-----------------------------------------------------------------|


post chorus:both guitars "Lets break out the shotguns!!!"
B |-------------------------------------------------------------------------|
Bb|-------------------------------------------------------------------------|
Gb|--3-3---3-----3----------------------------------------------------------|
Db|0-3-3-0-3-0-0-3----------------------------------------------------------|
Ab|0-1-1-0-1-0-0-1----------------------------------------------------------|
Db|0-----0---0-0------------------------------------------------------------|
             * *
Lyrics:
SIT DOWN!
Return to sender, I've fallen off the hint of suggestion.
Unlearning the strange devices of the world.
It's the end of the earth or something like it, like it.
The great universal coma has arrived.

We are holding our hands towards the sun.
Sit down, come on sit down. Let's break out the shotguns, we're going to town.
Return to sender, carried straight from the womb to the grave.
Your eyes have been paled to emptiness.
All things have been carved out by the unceasing haunts
of this, the Great Manipulator!

The holding of our hands upwards and around the eclipsing sun
has become empty and automatic.
Sit down, sit down, come on sit down.
Let's break out the shotguns, we're going to town.
Let's break out the shotguns, we're going to town!
You've given us user friendly grenades! Just what are you trying to say?
Just what are you trying to say? Just what are you trying to say?
Just what are you trying to say? Just what are you trying to say?
Just what are you trying to say? Just what are you trying to say?
Just what are you trying to say? Just what are you trying to say?

The holding of our hands upwards and around the eclipsing sun
has become empty and automatic.
Sit down, sit down, come on sit down.

The holding of our hands upwards and around the eclipsing sun
has become empty and automatic.
Sit down, sit down, come on sit down.

Let's break out the shotguns, we're going to town!

sorry for the confusion but i promise this is 100% correct
God Bless Norma Jean And Everyone Else
i know i miss spelled where but it was late darnit
            
Submit corrections


        A Grand Scene For A Color Film lessons Hard to play? Try these video lessons and learn fast A Grand Scene For A Color Film lessons
        
↑ Back to top | Tablatures and chords for acoustic guitar and electric guitar, ukulele, drums are parodies/interpretations of the original songs. You may use it for private study, scholarship, research or language learning purposes only