Home » N » None »

None - Blues Tabs

Artists:  A B C D E F G H I J K L M N O P Q R S T U V W X Y Z # 

Blues Tabs

(ver. 2) Click to play this song!
None
 Rating:
4/5 (4 votes)
                This is a pure pentatonic solo like Jimmy page's style in "whole lotta love"...
Enjoy yourself...

-|-7-7-|--------12-------------------------|-7-7-|-17b-17p15----15------------
-|-9-9-|-----12----15-12-------------------|-9-9-|-----------17----17vvv------
-|-9-9-|-14b-------------15-14-12-14-12vvv-|-9-9-|----------------------------
-|-9-9-|-----------------------------------|-9-9-|----------------------------
-|-7-7-|-----------------------------------|-7-7-|----------------------------
-|-7-7-|-----------------------------------|-7-7-|----------------------------
                                                                              

-|-7-7-|-20b--20-20p17----17-----------|-7-7-|------7-------------------------
-|-9-9-|---------------20----20vvv-----|-9-9-|----7---10-7--------------------
-|-9-9-|-------------------------------|-9-9-|-9b----------10-9-7-9-7vvv------
-|-9-9-|-------------------------------|-9-9-|--------------------------------
-|-7-7-|-------------------------------|-7-7-|--------------------------------
-|-7-7-|-------------------------------|-7-7-|--------------------------------
        (hold)                                                                

-|-7-7-|--------------|-7-7-|-------7------------------|-7-7-|--------12------
-|-9-9-|-2b-2p0-------|-9-9-|----10---10-7-------------|-9-9-|-----12----15---
-|-9-9-|--------3-2-0-|-9-9-|-9b-----------9b-9p7------|-9-9-|-14b------------
-|-9-9-|--------------|-9-9-|---------------------9vvv-|-9-9-|----------------
-|-7-7-|--------------|-7-7-|--------------------------|-7-7-|----------------
-|-7-7-|--------------|-7-7-|--------------------------|-7-7-|----------------
                                                                              

-------------------------------------7vv-|------------------------------------
-12----------------------------------9vv-|------------------------------------
----15-14-12-------------------------7vv-|------------------------------------
-------------14-12-------------------9vv-|------------------------------------
-------------------14-13-12----------7vv-|------------------------------------
----------------------------15-12-/7-7vv-|------------------------------------
            
Submit corrections

↑ Back to top | Tablatures and chords for acoustic guitar and electric guitar, ukulele, drums are parodies/interpretations of the original songs. You may use it for private study, scholarship, research or language learning purposes only