» » »

No Cash - Skate Or Die Tabs

Artists:  A B C D E F G H I J K L M N O P Q R S T U V W X Y Z # 

Skate Or Die Tabs

(ver. 1) Click to play this song!
No Cash
 Rating:
4/5 (7 votes)

 Skate Or Die lessons Tabs too difficult? Try these video lessons and learn fast
 
                E|--1010101010-7-8---7777777-8-7-------------|
B|------------------------------8------------|
G|-------------------------------------------| x2
D|-------------------------------------------|
A|-------------------------------------------|
E|-------------------------------------------|

E|-------------------------------7-----------|
B|--8888-10-8---8888-10-8---8888---10-8------|
G|-------------------------------------------|
D|-------------------------------------------|
A|-------------------------------------------|
E|-------------------------------------------|

E|--1010101010-7-8--7777-8-7------------------|
B|---------------------------10-8-------------|
G|--------------------------------------------|
D|--------------------------------------------|
A|--------------------------------------------|
E|--------------------------------------------|
            
Submit corrections


        Skate Or Die lessons Hard to play? Try these video lessons and learn fast Skate Or Die lessons
        
↑ Back to top | Tablatures and chords for acoustic guitar and electric guitar, ukulele, drums are parodies/interpretations of the original songs. You may use it for private study, scholarship, research or language learning purposes only