Home » N » No Cash »

No Cash - Skate Or Die Bass

Artists:  A B C D E F G H I J K L M N O P Q R S T U V W X Y Z # 

Skate Or Die Bass

(ver. 1) Click to play this song!
No Cash
Band: No Cash
Tuning: Standard G D A E

~ = hold note


Intro is all guitar and vocals
Bass comes in at 00:51 seconds

Pre Verse
G|--------------------------------------------| x2
D|--------------------------------------------|
A|------------2222-3333----------2222-3333----|
E|---33333333-----------33333333--------------|


Verse
G|--------------------------------------------------------------------------------|
D|--------------------------------------------------------------------------------|
A|------------2222-3333----------2222-3333----------2222-3333----------2222-3333--|
E|---33333333-----------33333333-----------33333333-----------33333333------------|


Chorus
G|---------------------------------------------|
D|---------------------------------------------|
A|--------5555-2222-3333------5555-2222-3-3-3--|
E|---3333----------------3333------------------|

Verse
Chorus

During Guitar Solo
G|----------------------------------------------------------------|
D|----------------------------------------------------------------|
A|--------2~~3~~-----2~~3~~---------2222-3333----------2222-3333--|
E|---3~~~~------3~~~~------33333333-----------33333333------------|


Bridge
G|------------------------------------------| x3
D|------------------------------------------|
A|------------2222-3333----------2222-3333--|
E|---33333333-----------33333333------------|


End Chorus
G|---------------------------------------------|
D|---------------------------------------------|
A|--------5555-2222-3333------5555-2222-3-3-3--|
E|---3333----------------3333------------------|

G|------------------------------------------------------|
D|------------------------------------------------------|
A|--------5555-2222-3333------5555-2222-3-3-3-----------|
E|---3333----------------3333-----------------3~~~3-----|

Well, I hope this tab works out well. Please rate!
            
Submit corrections

↑ Back to top | Tablatures and chords for acoustic guitar and electric guitar, ukulele, drums are parodies/interpretations of the original songs. You may use it for private study, scholarship, research or language learning purposes only