» » »

Nizlopi - Jcb Song Chords

Artists:  A B C D E F G H I J K L M N O P Q R S T U V W X Y Z # 

Jcb Song Chords

(ver. 2) Click to play this song!
Nizlopi
 Rating:
3.7/5 (6 votes)

 Jcb Song lessons Tabs too difficult? Try these video lessons and learn fast
 
                -------------------------------------------------------------------------------
                             JCB - Nizlopi
-------------------------------------------------------------------------------

Tuning: standard

e|-------------2---------5--2------------------------------------------------|
B|---------------------------------------------------------------------------|
G|-------2---------2--------------2------------------------------------------|
D|--0------------------------------------------------------------------------|
A|---------------------------------------------------------------------------|
E|---------------------------------------------------------------------------|

e|-------------2---------5--2------------------------------------------------|
B|---------------------------------------------------------------------------|
G|-------2---------2--------------2------------------------------------------|
D|--2------------------------------------------------------------------------|
A|---------------------------------------------------------------------------|
E|---------------------------------------------------------------------------|

Play the above through the start of all the verses (the first two lines)


Well, I'm rumblin' in this JCB.

I'm 5 years old and my dad's giant sitting beside me.
        G                     A
And the engine rattles my bum like berserk
                    G                               A
While we're singin, Don't forget your shovel if you want to go to work

A                       G
An' we're holdin up the bypass oh
A                     G            A
Me and my dad havin a top laugh oh woah
              G
Sittin on the toolbox oh
A                          G
And I'm so glad I'm not in school, boss
                   A
So glad I'm not in school

Oh no...

G                                           A
I'm Luke, I'm five, and my dad's Bruce Lee. Drives me round in his JCB.
G                                           A
I'm Luke, I'm five, and my dad's Bruce Lee. Drives me round in his JCB.



For the chorus I tend not to strum the chords but to play them a note at a time
like the song. I know the chords arn't 100% correct but it sounds good with the song.
            
Submit corrections


        Jcb Song lessons Hard to play? Try these video lessons and learn fast Jcb Song lessons
        
↑ Back to top | Tablatures and chords for acoustic guitar and electric guitar, ukulele, drums are parodies/interpretations of the original songs. You may use it for private study, scholarship, research or language learning purposes only