Home » N » Nizlopi »

Nizlopi - Jcb Song Bass

Artists:  A B C D E F G H I J K L M N O P Q R S T U V W X Y Z # 

Jcb Song Bass

(ver. 1) Click to play this song!
Nizlopi
There is no bass part in this song but this is just what you could play if your band are 
to do it.
At the end i do a death metal breakdown but that's just my band and to do that i just 
the chorus distorted and at double speed so yer this is pretty simple so enjoy.

Play with a capo on the second fret.

Intro:
G|-----------------------------------|
D|-----------------------------------|
A|-3-----3---------------------------|
E|------------------3----------------|

Verse 1:
(x2)
G|-----------------------------------|
D|-----------------------------------|
A|-3-----3---------------------------|
E|------------------3----------------|

(x2)
G|------------------------------------|
D|------------------------------------|
A|-3-----------------3----------------|
E|------------------------------------|

(x2)
G|------------------------------------|
D|------------------------------------|
A|-3-----3----------------------------|
E|------------------3-----------------|

(x2)
G|------------------------------------|
D|------------------------------------|
A|-3----------------------------------|
E|-------------------3----------------|

Chorus:

(x4)
G|------------------------------------|
D|------------------------------------|
A|------------------------------------|
E|-1---------------3------------------|

Verse2:
(its a little different to the first 1)
(x2)
G|------------------------------------|
D|------------------------------------|
A|-3-----3----------------------------|
E|------------------3-----------------|

(x2)
G|------------------------------------|
D|------------------------------------|
A|-3-----------------3----------------|
E|------------------------------------|

G|------------------------------------|
D|------------------------------------|
A|-3-----3----------------------------|
E|------------------3-----------------|

(this is the different part)
G|------------------------------------|
D|------------------------------------|
A|-3---------------3------------------|
E|------------------------------------|

(x2)
G|------------------------------------|
D|------------------------------------|
A|-3----------------------------------|
E|-------------------3----------------|

1.Intro (x2)
2.Verse 1 (x1)
3.Chorus (x2)
4.Verse 2 (x1)
            
Submit corrections

↑ Back to top | Tablatures and chords for acoustic guitar and electric guitar, ukulele, drums are parodies/interpretations of the original songs. You may use it for private study, scholarship, research or language learning purposes only