» » »

Nizlopi - Jcb Song Tabs

Artists:  A B C D E F G H I J K L M N O P Q R S T U V W X Y Z # 

Jcb Song Tabs

(ver. 1) Click to play this song!
Nizlopi
 Rating:
3.3/5 (12 votes)

 Jcb Song lessons Tabs too difficult? Try these video lessons and learn fast
 
                JCB Song
--------

what a simple and great song!    

 n.c. (no chord)
    G (32003x)
Asus4 (x0223x)
    D (xx0232)

/ = slide up
\ = slide down



          (D)                (Asus4)            (D)                (Asus4)
INTRO:	e|-----2---5--2-----|-----2---5--2---2-|-----2---5--2-----|-----2-|
	b|-------5--------5-|-------5------5---|-------5--------5-|---5---|
	g|---2----------2---|---2--------------|---2----------2---|-------|
	d|-0----------------|------------------|-0----------------|-------|
	a|------------------|-0----------------|------------------|-0-----|
	E|------------------|------------------|------------------|-------|


	  (D)                (Asus4)
V1:	e|-----2---5--2-----|-----2---5--2---2-|
	b|-------5--------5-|-------5------5---|
	g|---2----------2---|---2--------------|
	d|-0----------------|------------------|
	a|------------------|-0----------------|
	E|------------------|------------------|

	  well i'm rumbling in this JCB.


	  (D)                (Asus4)
	e|-----2---5--2-----|-----2---5--2---2-|
	b|-------5--------5-|-------5------5---|
	g|---2----------2---|---2--------------|
	d|-0----------------|------------------|
	a|------------------|-0----------------|
	E|------------------|------------------|
	
	 i'm five years old and my dads a giant sitting beside me and the


	  (G)               (Asus4)	
	e|---------0-------|---------0-------|
	b|-----3-----3---3-|-----3-----3---3-|
	g|---0---0-----0---|-------2-----2---|
	d|-----------------|---2-------------|
	a|-----------------|-0---------------|
	E|-3---------------|-----------------|
	
	 engine rattles my bum like berserk, while we're singing:


	  (G)               (Asus4)
	e|---------0-------|---------0-------|
	b|-----3-----3---3-|-----3-----3---3-|
	g|---0---0-----0---|-------2-----2---|
	d|-----------------|---2-------------|
	a|-----------------|-0---------------|
	E|-3---------------|-----------------|
	
	 'don't forget your shovel if you want to go to work.' my dads



	  (D)                (Asus4)
V2:	e|-----2---5--2-----|-----2---5--2---2-|
	b|-------5--------5-|-------5------5---|
	g|---2----------2---|---2--------------|
	d|-0----------------|------------------|
	a|------------------|-0----------------|
	E|------------------|------------------|

	  probably had a bloody hard day, but he's been
 

	  (D)                (Asus4)
	e|-----2---5--2-----|-----2---5--2---2-|
	b|-------5--------5-|-------5------5---|
	g|---2----------2---|---2--------------|
	d|-0----------------|------------------|
	a|------------------|-0----------------|
	E|------------------|------------------|
	
	 good fun and bubbling and joking away and the


	  (G)               (Asus4)	
	e|---------0-------|---------0-------|
	b|-----3-----3---3-|-----3-----3---3-|
	g|---0---0-----0---|-------2-----2---|
	d|-----------------|---2-------------|
	a|-----------------|-0---------------|
	E|-3---------------|-----------------|
	
	 precession of cars stuck behind are getting


	  (G)               (Asus4)
	e|---------0-------|---------0-|
	b|-----3-----3---3-|-----3-----|
	g|---0---0-----0---|-------2---|
	d|-----------------|---2-------|
	a|-----------------|-0---------|
	E|-3---------------|-----------|
	
	 all impatient and angry but we don't mind



	  (G)               (Asus4)
C1:	e|---------0-------|---------0-------|
	b|-----3-----3---3-|-----3-----3---3-|
	g|---0---0-----0---|-------2-----2---|
	d|-----------------|---2-------------|
	a|-----------------|-0---------------|
	E|-3---------------|-----------------|

	 and we're holding up the bypass, me and my dad having


	  (G)               (Asus4)
	e|---------0-------|---------0-------|
	b|-----3-----3---3-|-----3-----3---3-|
	g|---0---0-----0---|-------2-----2---|
	d|-----------------|---2-------------|
	a|-----------------|-0---------------|
	E|-3---------------|-----------------|
	
	 top laughs, ah-woah. i'm sitting on the


	  (G)               (Asus4)
	e|---------0-------|---------0-------|
	b|-----3-----3---3-|-----3-----3---3-|
	g|---0---0-----0---|-------2-----2---|
	d|-----------------|---2-------------|
	a|-----------------|-0---------------|
	E|-3---------------|-----------------|
	
	 toolbox, and i'm so glad i'm not in


	  (G)               (Asus4)
	e|---------0-------|---------|
	b|-----3-----3---3-|-----3---|
	g|---0---0-----0---|-------2-|
	d|-----------------|---2-----|
	a|-----------------|-0-------|
	E|-3---------------|---------|
	
	 school boss, so glad i'm not in school. oh no



	  (D)                (Asus4)            (D)
SOLO:	e|-----2---5--2-----|-----2---5--2---2-|-----2---5--2-----|
	b|-------5--------5-|-------5------5---|-------5--------5-|
	g|---2----------2---|---2--------------|---2----------2---|
	d|-0----------------|------------------|-0----------------|
	a|------------------|-0----------------|------------------|
	E|------------------|------------------|------------------|



	  (D)                (Asus4)
V3:	e|-----2---5--2-----|-----2---5--2---2-|
	b|-------5--------5-|-------5------5---|
	g|---2----------2---|---2--------------|
	d|-0----------------|------------------|
	a|------------------|-0----------------|
	E|------------------|------------------|

	  and we pull over to let cars pass, and pull
 

	  (D)                (Asus4)
	e|-----2---5--2-----|-----2---5--2---2-|
	b|-------5--------5-|-------5------5---|
	g|---2----------2---|---2--------------|
	d|-0----------------|------------------|
	a|------------------|-0----------------|
	E|------------------|------------------|
	
	 off again speeding by this summer green grass and we're like


	  (G)               (Asus4)	
	e|---------0-------|---------0-------|
	b|-----3-----3---3-|-----3-----3---3-|
	g|---0---0-----0---|-------2-----2---|
	d|-----------------|---2-------------|
	a|-----------------|-0---------------|
	E|-3---------------|-----------------|
	
	 giants up here in our big yellow digger, like


	  (G)               (Asus4)
	e|---------0-------|---------0-------|
	b|-----3-----3---3-|-----3-----3---3-|
	g|---0---0-----0---|-------2-----2---|
	d|-----------------|---2-------------|
	a|-----------------|-0---------------|
	E|-3---------------|-----------------|
	
	 zoids or transformers or maybe even bigger. and i wanna



	  (D)                (Asus4)
V4:	e|-----2---5--2-----|-----2---5--2---2-|
	b|-------5--------5-|-------5------5---|
	g|---2----------2---|---2--------------|
	d|-0----------------|------------------|
	a|------------------|-0----------------|
	E|------------------|------------------|

	  transform into a tyrannasaurus rex and 
 

	  (D)                (Asus4)
	e|-----2---5--2-----|-----2---5--2---2-|
	b|-------5--------5-|-------5------5---|
	g|---2----------2---|---2--------------|
	d|-0----------------|------------------|
	a|------------------|-0----------------|
	E|------------------|------------------|
	
	 and eat up all the bullies and the teachers and their pets and i'll


	  (G)               (Asus4)	
	e|---------0-------|---------0-------|
	b|-----3-----3---3-|-----3-----3---3-|
	g|---0---0-----0---|-------2-----2---|
	d|-----------------|---2-------------|
	a|-----------------|-0---------------|
	E|-3---------------|-----------------|
	
	 tell all my mates my dad's B.A. Barracus, only with a


	  (G)               (Asus4)
	e|---------0-------|-------|
	b|-----3-----3---3-|-----3-|
	g|---0---0-----0---|-------|
	d|-----------------|---2---|
	a|-----------------|-0-----|
	E|-3---------------|-------|
	
	 JCB and bruce lee's nun-chuckas



	  (G)               (Asus4)
C2:	e|---------0-------|---------0-------|
	b|-----3-----3---3-|-----3-----3---3-|
	g|---0---0-----0---|-------2-----2---|
	d|-----------------|---2-------------|
	a|-----------------|-0---------------|
	E|-3---------------|-----------------|

	 and we're holding up the bypass, me and my dad having


	  (G)               (Asus4)
	e|---------0-------|---------0-------|
	b|-----3-----3---3-|-----3-----3---3-|
	g|---0---0-----0---|-------2-----2---|
	d|-----------------|---2-------------|
	a|-----------------|-0---------------|
	E|-3---------------|-----------------|
	
	 a top laugh, oh-woah. i'm sitting on the


	  (G)               (Asus4)
	e|---------0-------|---------0-------|
	b|-----3-----3---3-|-----3-----3---3-|
	g|---0---0-----0---|-------2-----2---|
	d|-----------------|---2-------------|
	a|-----------------|-0---------------|
	E|-3---------------|-----------------|
	
	 toolbox oh-oh, and i'm so glad i'm not in


	  (G)               (Asus4)
	e|---------0-------|---------0------|
	b|-----3-----3---3-|-----3-----3---3|
	g|---0---0-----0---|-------2-----2--|
	d|-----------------|---2------------|
	a|-----------------|-0--------------|
	E|-3---------------|----------------|
	
	 school boss, so glad i'm not in school.



	  (G)               (Asus4)
C4:	e|---------0-------|---------0-------|
	b|-----3-----3---3-|-----3-----3---3-|
	g|---0---0-----0---|-------2-----2---|
	d|-----------------|---2-------------|
	a|-----------------|-0---------------|
	E|-3---------------|-----------------|

	 and we're holding up the bypass oh oh, me and my dad having


	  (G)               (Asus4)
	e|---------0-------|---------0-------|
	b|-----3-----3---3-|-----3-----3---3-|
	g|---0---0-----0---|-------2-----2---|
	d|-----------------|---2-------------|
	a|-----------------|-0---------------|
	E|-3---------------|-----------------|
	
	 a top laugh, oh-woah. i'm sitting on the


	  (G)               (Asus4)
	e|---------0-------|---------0-------|
	b|-----3-----3---3-|-----3-----3---3-|
	g|---0---0-----0---|-------2-----2---|
	d|-----------------|---2-------------|
	a|-----------------|-0---------------|
	E|-3---------------|-----------------|
	
	 toolbox oh-oh, and i'm so glad i'm not in


	  (G)               (Asus4)
	e|---------0-------|-------------------|
	b|-----3-----3---3-|-----3-----3-------|
	g|---0---0-----0---|-------2-----------|
	d|-----------------|---2---------------|
	a|-----------------|-0-------0---4/5\4-|
	E|-3---------------|-------------------|
	
	 school boss, so glad i'm not in school.


	n.c.
OUTRO:	said i'm luke, i'm five and my dad's bruce lee
	
	drives me round in his JCB
	
	i'm luke, i'm five and my dad's bruce lee
	
	drives me round in his JCB
	     G
	i'm luke, i'm five and my dad's bruce lee
	 Asus4
	drives me round in his JCB
	     G
	i'm luke, i'm five and my dad's bruce lee
	 Asus4                                     G       Asus4
	drives me round and we're holding up the by-pass woah
	                       G             Asus4
	me and my dad having a top laugh oh-woah
	                       G          Asus4
	and i'm sitting on the toolbox oh-oh
	                           G                                 Asus4 
	and i'm so glad i'm not in school boss, so glad i'm not in school
	             G
	oh said i'm luke, i'm five and my dad's bruce lee
	 Asus4
	drives me round in his JCB
	     G
	i'm luke, i'm five and my dad's bruce lee
	 Asus4
	drives me round in his, ah
	     G
	i'm luke, i'm five and my dad's bruce lee
	 Asus4
	drives me round in his JCB
	     G
	i'm luke, i'm five and my dad's bruce lee
	 Asus4                    D
	drives me round in his JCB



-rigs-
            
Submit corrections


        Jcb Song lessons Hard to play? Try these video lessons and learn fast Jcb Song lessons
        
↑ Back to top | Tablatures and chords for acoustic guitar and electric guitar, ukulele, drums are parodies/interpretations of the original songs. You may use it for private study, scholarship, research or language learning purposes only