Home » N » Nightwish »

Nightwish - The Escapist Tabs

Artists:  A B C D E F G H I J K L M N O P Q R S T U V W X Y Z # 

The Escapist Tabs

(ver. 1) Click to play this song!
Nightwish
Band: Nightwish





Listen to the music.

do the two first parts two times
00.51
x3 intro:                           x1                         |x1
e |---------------------------|---------------------------------|-----------|
b |---------------------------|---------------------------------|-----------|
g |---------------------------|---------------------------------|-----------|
d |---------------------5-----|---------------------------------|---5-4--5~-|
a |-5-----5/6-----5/6-8---5-3-|-5-----5/6-----5/6-8-3-6-5-5/6-5-|-5---------|
d |---5-5-----5-5-------------|---5-5-----5-5-------------------|-----------|

01.30
x3                            x1
e ---------------------------|------------------------------|
b ---------------------------|------------------------------|
g ---------------------------|------------------------------|
d ---------------------5-----|------------------------------|
a -5-----5/6-----5/6-8---5-3-|-5-----5/6-----5/6-8-3-6-5-6--|
d ---5-5-----5-5-------------|---5-5-----5-5----------------|

01.57
Riff 1
e ----------------------|
b ----------------------|
g ----------------------|
d -5-5-5--5-5--5-5-5-3~-|
a -5-5-5--5-5--5-5-5-3~-|
d -5-5-5--5-5--5-5-5-3~-|


02.10
x2 Verse
e --------------------------------------------------|
b --------------------------------------------------|
g --------------------------------------------------|
d -5-5-5-5-3-3-3-3-5-5-5-5-5-5-5-5-7-7-3-3-5-5------|
a -5-5-5-5-3-3-3-3-5-5-5-5-5-5-5-5-7-7-3-3-5-5-1----|
d -5-5-5-5-3-3-3-3-5-5-5-5-5-5-5-5-7-7-3-3-5-5---3*-|


02.37
 Riff 2     Riff 3
x1         x2
e --------|---------------------------|
b --------|---------------------------|
g --------|---------------------------|
d -5~-3-2-|-0-0-0--0-0-0-0-0----------|
a -5~-3-2-|-0-0-0--0-0-0-0-0-3-1-0-1*-|
d -5~-3-2-|-0-0-0--0-0-0-0-0----------|
            . . .  . . . . .

02.47
Riff 4
e ----------------------------------|
b ----------------------------------|
g ----------------------------------|
d -2-2-2-2-3-3-3-3-5-5-5-5-7-7-7-7--|
a -0-0-0-0-1-1-1-1-3-3-3-3-5-5-5-5--|
d ----------------------------------|

02.51
Riff 5
e ------------------|
b ------------------|
g ------------------|
d -5-5-5-5-3-3-2-2--|
a -5-5-5-5-3-3-2-2--|
d -5-5-5-5-3-3-2-2--|

02.54
Riff 3

03.01
Riff 4

03.05
Riff 5

03.07
Riff 6
e ------------------------------|
b ------------------------------|
g ------------------------------|
d -5-5-5-5-3-3-3-3-7-7-7-7-5-5--|
a -5-5-5-5-3-3-3-3-7-7-7-7-5-5--|
d -5-5-5-5-3-3-3-3-7-7-7-7-5-5--|
   . . . .


e ---------------------------------------------------|
b ---------------------------------------------------|
g ---------------------------------------------------|
d -5-5-5-5-0-0-0-0-1-1-1-1-5-5-5-5-3-3-3-3--(3)-(1)--|
a -5-5-5-5-0-0-0-0-1-1-1-1-5-5-5-5-3-3-3-3--(3)-(1)--|
d -5-5-5-5-0-0-0-0-1-1-1-1-5-5-5-5-3-3-3-3--(3)-(1)--|

03.37
x3 Verse


in the final part of the verse
they play this

04.27
Riff 7
x15
e ------------|
b ------------|
g ------------|
d -5-3/5-3-5--|
a -5-3/5-3-5--|
d -5-3/5-3-5--|

FIN!!
            
Submit corrections

↑ Back to top | Tablatures and chords for acoustic guitar and electric guitar, ukulele, drums are parodies/interpretations of the original songs. You may use it for private study, scholarship, research or language learning purposes only