Home » N » Nightwish »

Nightwish - Last Ride Of The Day Bass

Artists:  A B C D E F G H I J K L M N O P Q R S T U V W X Y Z # 

Last Ride Of The Day Bass

(ver. 1) Click to play this song!
Nightwish
---------------------------------------------------------------------------
			     Last Ride of the Day - Nightwish
---------------------------------------------------------------------------

Tuning: DGCF

This is my interpretation of Last ride of the Day by Nightwish. Hope it helps!
The number of notes might be a little off in the second part of the intro etc. but the 
timings are really easy to pick up just follow Emppu’s rhythm.

Intro 00:09 Bass enters with drums.

F|------------------------------------------------------------------------|
C|------------------------------------------------------------------------|
G|------------------------------------------------------------------------|
D|-00-0-00----00-0-00r--000-----------------------------------------------|

Intro part two 00:17 (play twice)

F|------------------------------------------------------------------------|
C|------------------------------------------------------------------------|
G|---------------------------------------------------0-3-5----------------|
D|-12\00000000-000-000000002323-00000000-000-00000000---------------------|

Verse Part one (Bass rests until 00:44)

F|------------------------------------------------------------------------|
C|------------------------------------------------------------------------|
G|-3/77777777777777777777910910-7777777777777777777-0-3-5-----------------|
D|------------------------------------------------------------------------|

Verse part two (play twice)

F|------------------------------------------------------------------------|
C|------------------------------------------------------------------------|
G|-------------------------------------------------0-3-5------------------|
D|-00000000-000-0000000-2323-00000000-000-0000000-------------------------|

Pre-Chorus

F|------------------------------------------------------------------------|
C|------------------------------------------------------------------------|
G|-33333333333353---------355555555---------------------------------------|
D|---------------543333335------------------------------------------------|

Chorus (play twice)

F|------------------------------------------------------------------------|
C|------------------------------------------------------------------------|
G|-------------------35777777772222222200000000--------3333333355555555---|
D|-000000000000000000--------------------------00000000-------------------|

F|------------------------------------------------------------------------|
C|------------------------------------------------------------------------|
G|-------------------3577777777--------------------------------55555555---|
D|-000000000000000000----------33333333555555550000000033333333-----------|


Pre-Verse (play twice)

F|------------------------------------------------------------------------|
C|------------------------------------------------------------------------|
G|---------------------------------------------------0-3-5----------------|
D|-12\00000000-000-000000002323-00000000-000-00000000---------------------|

Verse two part one

F|------------------------------------------------------------------------|
C|------------------------------------------------------------------------|
G|-3/7777777777777777777-0-3-5--------------------------------------------|
D|------------------------------------------------------------------------|

Verse two part two

F|------------------------------------------------------------------------|
C|------------------------------------------------------------------------|
G|---------------------------------------------------0-3-5----------------|
D|-12\00000000-000-000000002323-00000000-000-00000000---------------------|

Pre-Chorus

F|------------------------------------------------------------------------|
C|------------------------------------------------------------------------|
G|-33333333333353---------35555/17171717----------------------------------|
D|---------------543333335------------------------------------------------|

Chorus (play twice)

F|------------------------------------------------------------------------|
C|------------------------------------------------------------------------|
G|-------------------35777777772222222200000000--------3333333355555555---|
D|-000000000000000000--------------------------00000000-------------------|

F|------------------------------------------------------------------------|
C|------------------------------------------------------------------------|
G|-------------------3577777777--------------------------------55555555---|
D|-000000000000000000----------33333333555555550000000033333333-----------|

Bridge

F|------------------------------------------------------------------------|
C|------------------------------------------------------------------------|
G|-3333333333333333--------------3-5--------------------------------------|
D|-----------------33333333333333----12\00000000-000-000000000000---------|


F|------------------------------------------------------------------------|
C|------------------------------------------------------------------------|
G|-3333333333333333-------------------------------------------------------|
D|-----------------33333333333333/////\\\\\\------------------------------|

F|------------------------------------------------------------------------|
C|------------------------------------------------------------------------|
G|------------------------------------------------------------------------|
D|-00000000-000-000000002323-00000000-000-00000---------------------------|




F|------------------------------------------------------------------------|
C|------------------------------------------------------------------------|
G|------------------------------------------------------------------------|
D|-00000-00-00-32-00000-00-00-00-33333-33-33-33---------------------------|

Key Change Chorus (play twice)

F|------------------------------------------------------------------------|
C|------------------------------------------------------------------------|
G|-------------------57999999994444444422222222--------5555555577777777---|
D|-222222222222222222--------------------------22222222-------------------|

F|------------------------------------------------------------------------|
C|------------------------------------------------------------------------|
G|-------------------5799999999--------------------------------77777777---|
D|-222222222222222222----------55555555777777772222222255555555-----------|

Outro (play twice)

F|------------------------------------------------------------------------|
C|------------------------------------------------------------------------|
G|---------------------------------------------------2-5-7----------------|
D|-14\22222222-222-222222224545-22222222-222-22222222---------------------|


| / slide up
| \ slide down
| H hammer-on
| P pull-off
| ~ vibrato
| + harmonic
| X Mute note
| r Let note ring
===========================================================================
            
Submit corrections

↑ Back to top | Tablatures and chords for acoustic guitar and electric guitar, ukulele, drums are parodies/interpretations of the original songs. You may use it for private study, scholarship, research or language learning purposes only