» » »

Nightwish - Lappi Iv Etiinen Tabs

Artists:  A B C D E F G H I J K L M N O P Q R S T U V W X Y Z # 

Lappi Iv Etiinen Tabs

(ver. 1) Click to play this song!
Nightwish
 Rating:
4/5 (4 votes)

 Lappi Iv Etiinen lessons Tabs too difficult? Try these video lessons and learn fast
 
                
LAPPI IV: ETIÄINEN
As recorded by Nightwish
(From the 1997 Album ANGELS FALL FIRST)

	

Music by Tuomas Holopainen / Nightwish
Arranged by Nightwish

Em
0 2 2 0 0 0
	
G
3 2 0 0 0 3
	
D
x x 0 2 3 2
	
Am
x 0 2 2 1 0

Gtr I (E A D G B E) - 'Gtr. 1'
Gtr II (E A D G B E) - 'Gtr. 2'
Gtr III (E A D G B E) - 'Gtr. 3'
Gtr IV (E A D G B E) - 'Strings'

   Intro and Outro
    Q=130
    Em                              D
   4/4
    Gtr I
     E E E E E Q.      +W            Q  E E E E E E     E  E E E E E Q
||--^0-0------------|-------------|-^2--2-----3-----|---5------3-----2---|
||o-^0---0---3------|-------------|-^3----3-----3---|------3-----3-------|
||--^0-----0---0----|--(0)--------|-^2------2-----2-|--------2-----2-----|
||--^2--------------|-------------|-^0--------------|--------------------|
||o-^2--------------|-------------|-----------------|--------------------|
||--^0--------------|-------------|-----------------|--------------------|
|
|   Gtr IV
|    W                 +W            W                 +W
||--12--------------|-(12)--------|-10--------------|-(10)---------------|
||o--5--------------|--(5)--------|--3--------------|--(3)---------------|
||------------------|-------------|-----------------|--------------------|
||------------------|-------------|-----------------|--------------------|
||o-----------------|-------------|--5--------------|--(5)---------------|
||---0--------------|--(0)--------|-----------------|--------------------|
     W                 +W


                                             1.,2.,3.
                                    To Coda
  Am    Esus4/A                   Em
   Q.    E +H        +W            W           +W      4x
|-^0----^0-(0)----|--(0)--------|-^0--------|--(0)-----||
|-^1----^0-(0)----|--(0)--------|-^0--------|--(0)----o||
|-^2----^2-(2)----|--(2)--------|-^0--------|--(0)-----||
|-^2----^2-(2)----|--(2)--------|-^2--------|--(2)-----||
|-^0----^0-(0)----|--(0)--------|-^2--------|--(2)----o||
|-----------------|-------------|-^0--------|--(0)-----||
|
|  W                 +W            W           +W      4x
|-12--------------|-(12)--------|-12--------|-(12)-----||
|--1--------------|--(1)--------|--5--------|--(5)----o||
|-----------------|-------------|--0--------|--(0)-----||
|-----------------|-------------|-----------|----------||
|--0--------------|--(0)--------|-----------|---------o||
|-----------------|-------------|--0--------|--(0)-----||


 Main Part
  4.
 4/4
    W
    S  S S S S S S S S S S S S S S S
|------------------------------0-3-5s|
|------------------------0-1-3-------|
|--------------------0-2-------------|
|----------------0-2-----------------|
|----------0-2-3---------------------|
|---0--2-3---------------------------|
|
| Gtr IV
|  +W
|-(12)-------------------------------|
|--(5)-------------------------------|
|--(0)-------------------------------|
|------------------------------------|
|------------------------------------|
|--(0)-------------------------------|


  G                         D
  Gtr III
   Q   E Q  E     E  E       Q  E Q   E E E
   |   | |  |     |  |       |  | |   | | |
   /   / /  /     /  /       /  / /   / / /

            |-3-|                         |-3-|
   Q.    Q  S S S E  E    a  Q  Q   Q   E S S S
|--7-----7--5h7p5------|--8h10--8---7---8-7h8p7--|
|-----------------8-10-|-------------------------|
|----------------------|-------------------------|
|----------------------|-------------------------|
|----------------------|-------------------------|
|----------------------|-------------------------|
|
|  W                      W
|-15-------------------|-------------------------|
|----------------------|-15----------------------|
|-12-------------------|-------------------------|
|----------------------|-12----------------------|
|----------------------|-------------------------|
|----------------------|-------------------------|


  Am                Em
   Q  E Q   E E E     Q        E Q  E E E
   |  | |   | | |     |        | |  | | |
   /  / /   / / /     /        / /  / / /

  Gtr I
   H      H           E    H..
|--5------0-------|------<12>-------------|
|-----------------|-<12>------------------|
|-----------------|-----------------------|
|-----------------|-----------------------|
|-----------------|-----------------------|
|-----------------|-----------------------|
|
| Gtr II
|  W                  W
|-----------------|-----------------------|
|-----------------|-----------------------|
|-----------------|-----------------------|
|-----------------|-----------------------|
|-----------------|-----------------------|
|-----------------|-----------------------|
|
| Gtr IV
|  W                  W
|-17--------------|--12-------------------|
|-----------------|--12-------------------|
|-14--------------|--12-------------------|
|-10--------------|---9-------------------|
|-----------------|-----------------------|
|-----------------|-----------------------|


  G                                          D                      Am
   Q         E     Q         E    E    E      Q   E Q  E  E E        Q  E Q  E E E
   |         |     |         |    |    |      |   | |  |  | |        |  | |  | | |
   /         /     /         /    /    /      /   / /  /  / /        /  / /  / / /

                        |-------6--------|                  |-3-|
   S  S S  S S  S  S  S E  E   E  E  E   E    Q.    Q  E  E S S S    W
|----10-8-10--------------10---8-----------|----------------------|----------------|
|--8---------8-12-10-12-8--------12-10---8-|--7-----7--8-10-7h8p7-|----------------|
|------------------------------------------|----------------------|--9-------------|
|------------------------------------------|----------------------|----------------|
|------------------------------------------|----------------------|----------------|
|------------------------------------------|----------------------|----------------|
|
|                       |-------6--------|
|  S  S S  S S  S  S  S E  E   E  E  E   E    W                      W
|-----7-5--7---------------7---5-----------|----------------------|----------------|
|---------------8--7--8-----------8--7---5-|----------------------|----------------|
|--7---------7----------7------------------|----------------------|----------------|
|------------------------------------------|----------------------|----------------|
|------------------------------------------|----------------------|----------------|
|------------------------------------------|----------------------|----------------|
|
|  W                                          W                      W
|-15---------------------------------------|----------------------|-17-------------|
|------------------------------------------|-15-------------------|----------------|
|-12---------------------------------------|----------------------|-14-------------|
|------------------------------------------|-12-------------------|-10-------------|
|------------------------------------------|----------------------|----------------|
|------------------------------------------|----------------------|----------------|


  Em
   Q       E   Q       E   E   E
   |       |   |       |   |   |
   /       /   /       /   /   /

  Gtr I
   S S S S S S S S S S S S S S S S
|----------------------------0-3-5s|
|----------------------0-1-3-------|
|------------------0-2-------------|
|--------------0-2-----------------|
|--------0-2-3---------------------|
|--0-2-3---------------------------|
|
| Gtr IV
|  W
|-12-------------------------------|
|-12-------------------------------|
|-12-------------------------------|
|--9-------------------------------|
|----------------------------------|
|----------------------------------|


  G                         D
   Q   E Q  E     E  E       Q  E Q   E E  E
   |   | |  |     |  |       |  | |   | |  |
   /   / /  /     /  /       /  / /   / /  /

            |-3-|
   Q.    Q  S S S E  E    a  Q  Q   Q   E.   S a
|--7-----7--5h7p5------|--8h10--8---7---8----7h8s=|
|-----------------8-10-|--------------------------|
|----------------------|--------------------------|
|----------------------|--------------------------|
|----------------------|--------------------------|
|----------------------|--------------------------|
|
|  W                      W
|-15-------------------|--------------------------|
|----------------------|-15-----------------------|
|-12-------------------|--------------------------|
|----------------------|-12-----------------------|
|----------------------|--------------------------|
|----------------------|--------------------------|


  Am               Em
   Q  E Q  E E E     Q        E Q  E E E
   |  | |  | | |     |        | |  | | |
   /  / /  / / /     /        / /  / / /

   W                 E    H..
|-12-------------|-<12>------------------|
|----------------|------<12>-------------|
|----------------|-----------------------|
|----------------|-----------------------|
|----------------|-----------------------|
|----------------|-----------------------|
|
| Gtr II
|  W                 W
|----------------|-----------------------|
|----------------|-----------------------|
|----------------|-----------------------|
|----------------|-----------------------|
|----------------|-----------------------|
|----------------|-----------------------|
|
| Gtr IV
|  W                 W
|-17-------------|--12-------------------|
|----------------|--12-------------------|
|-14-------------|--12-------------------|
|-10-------------|---9-------------------|
|----------------|-----------------------|
|----------------|-----------------------|


  G
   Q                        E  Q  E E E
   |                        |  |  | | |
   /                        /  /  / / /

   T  T  T  T  T  T  T  T  +Q.    E E S S
|----------10-12-15-12-10-(10)----8-7h8p7-|
|-------12--------------------------------|
|--9-12-----------------------------------|
|-----------------------------------------|
|-----------------------------------------|
|-----------------------------------------|
|
|  T  T  T  T  T  T  S     +H.
|----------------10-----------------------|
|-------------12----12----(12)------------|
|--------9-12-----------------------------|
|--9-12-----------------------------------|
|-----------------------------------------|
|-----------------------------------------|
|
|  W
|-15--------------------------------------|
|-----------------------------------------|
|-12--------------------------------------|
|-----------------------------------------|
|-----------------------------------------|
|-----------------------------------------|


                         D.C. al Coda
  D                   Am
   Q  E Q   E E E      Q  E Q  E E E
   |  | |   | | |      |  | |  | | |
   /  / /   / / /      /  / /  / / /

  Gtr I
   H      E E E S S    W
|--5------5---------|-----------------|
|-----------8-7h8p7-|--5--------------|
|-------------------|-----------------|
|-------------------|-----------------|
|-------------------|-----------------|
|-------------------|-----------------|
|
| Gtr IV
|  W                   W
|-------------------|-17--------------|
|-15----------------|-----------------|
|-------------------|-14--------------|
|-12----------------|-10--------------|
|-------------------|-----------------|
|-------------------|-----------------|


  &
  Em
   E E E E E Q.      +W             W            +W
|-^0-0------------|-------------|-^-0---------|--(0)----*|
|-^0---0---3------|-------------|-^-0---------|--(0)----*|
|-^0-----0---0----|--(0)--------|-^-0---------|--(0)----*|
|-^2--------------|-------------|-^-2---------|--(2)----*|
|-^2--------------|-------------|-^-2---------|--(2)----*|
|-^0--------------|-------------|-^-0---------|--(0)----*|
|
|  W                 +W            +W            +W
|-12--------------|-(12)--------|-(12)--------|-(12)----*|
|--5--------------|--(5)--------|--(5)--------|--(5)----*|
|-----------------|-------------|-------------|---------*|
|-----------------|-------------|-------------|---------*|
|-----------------|-------------|-------------|---------*|
|--0--------------|--(0)--------|--(0)--------|--(0)----*|
   W                 +W            +W            +W



Duration Legend
---------------
W - whole; H - half; Q - quarter; E - 8th; S - 16th; T - 32nd; X - 64th; a - acciaccatura
+ - note tied to previous; . - note dotted; .. - note double dotted
Uncapitalized letters represent notes that are staccato (1/2 duration)
Irregular groupings are notated above the duration line
Duration letters will always appear directly above the note/fret number it represents the
duration for.  Duration letters with no fret number below them represent rests.  Multi-
bar rests are notated in the form Wxn, where n is the number of bars to rest for.  Low
melody durations appear below the staff

Tablature Legend
----------------
 h   - hammer-on
 p   - pull-off
 b   - bend
 pb  - pre-bend
 r   - bend release (if no number after the r, then release immediately)
 /\  - slide into or out of (from/to "nowhere")
 s   - legato slide
 S   - shift slide
 - natural harmonic
[n]  - artificial harmonic
n(n) - tapped harmonic
 ~   - vibrato
 tr  - trill
 T   - tap
 TP  - trem. picking
 PM  - palm muting
\n/  - tremolo bar dip; n = amount to dip
 \n  - tremolo bar down
 n/  - tremolo bar up
/n\  - tremolo bar inverted dip
 =   - hold bend; also acts as connecting device for hammers/pulls
 <> - volume swell (louder/softer)
 x   - on rhythm slash represents muted slash
 o   - on rhythm slash represents single note slash

Misc Legend
-----------
 |  - bar
||  - double bar
||o - repeat start
o|| - repeat end
*|  - double bar (ending)
 :  - bar (freetime)
 $  - Segno
 &  - Coda
Tempo markers -  = BPM(8/16=s8/s16), where s8 = swing 8ths, s16 = swing 16ths
            
Submit corrections


        Lappi Iv Etiinen lessons Hard to play? Try these video lessons and learn fast Lappi Iv Etiinen lessons
        
↑ Back to top | Tablatures and chords for acoustic guitar and electric guitar, ukulele, drums are parodies/interpretations of the original songs. You may use it for private study, scholarship, research or language learning purposes only