» » »

Nightwish - High Hopes Bass

Artists:  A B C D E F G H I J K L M N O P Q R S T U V W X Y Z # 

High Hopes Bass

(ver. 1) Click to play this song!
Nightwish
 Rating:
4/5 (4 votes)

 High Hopes lessons Tabs too difficult? Try these video lessons and learn fast
 
                (Live)
Bassist: Marco Hietala


VERSE:

F|--------------------------------------------------|
C|--2-----------------1--2--------------------------|
G|-------3----2----2----------3----2----2-2-4\------|
D|----------------------------------------------0~--|


CHORUS:

F|------------------------------------------------------------------|
C|------------------------------------------------------------------|
G|---------2-2-2-223-3-3-3-5-5-5-5------------------0-0-0-2-3-3-3-3-|
D|--0--0-0-------------------------0--0-0-2-3-3-3-3-----------------|

F|----------------------------------------------------------------|
C|----------------------------------------------------------------|
G|--------2-2-2-2-3-3-3-3-5-5-5----------------0-0-0-0-3-3-3\-----|
D|-0--0-0------------------------0--0-2-3--3-3-----------------0~-|


VERSE (v.2):

F|----------------------------------------------------|
C|-2--2-2----------------1--2--2-2--------------------|
G|--------3-3-3-3-2--2-2-----------3-3-3--2----2-2-2--|
D|----------------------------------------------------|


DURING THE FIRST SOLO:

F|-----------------------------------------------------------------------|
C|-----------------------------------------------------------------------|
G|-----------------------------------------------------------------------|
D|-4---4-4----4---4-4----5---5-5----5---5-5--0-5-4---4-4----4---4-4--0-4-|


F|---------------------------------------------------------------------|
C|---------------------------------------------------------------------|
G|---------------------7-----------------------------------------------|
D|-5---5-5---5-5---5-5---7-654--x-4-4--x-4-4--x-4-4--x-4-5--x-5-5--x-5-|


F|------------5------------------------------------------------------------------|
C|--------------87---------------------------------------------------------------|
G|----------7--------------------------------------------------------------------|
D|-5--x-5-5-------4--x-4-4-4-x-4-4-4-x-4-4-4-x-4-5-5-x-5-5-5-x-5-7-7-7-7-7-7-7\--|


CHORUS 2 (x5):

F|------------------------------------------------------------------|
C|------------------------------------------------------------------|
G|---------2-2-2-223-3-3-3-5-5-5-5-----------------0-0-0-2-3-3-3-/\-|
D|-0-0-0-0-------------------------0-0-0-2-3-3-3-3------------------|


DURING THE SECOUND SOLO:

F|-----------------------------------------------------------------|
C|-----------------------------------------------------------------|
G|----------2-2-2-223-3-3-235-5-5-------------------0(6x)2-3(5x)/\-|
D|-0--000-0-----------------------5-0-0-0-2-3-3-3-3----------------|

F|---------------------------------------------------------------------|
C|---------------------------------------------------------------------|
G|-7-7-7-57---------3-3-3-235(5x)---------------------0-0-0-2-3(5x)530-|
D|---------77-7-7-57-------------7-5-30-0-0-2-3-3-3-3------------------|

F|-------------------------------------------------------------------|
C|-------------------------------------------------------------------|
G|---------2\-22023-3-3\-5-5-0-5---------------------0-0-0-2-3-3-3-3-|
D|-0-0-0-35----------------------7-5-0-0-0-2-3-3-3-3-----------------|


PLAY:
- CHORUS 2(x4)


FINAL:

F|------|
C|------|
G|------|
D|-0~---|

LEG:
~ : Let Ring
/ : Slide Up
\ : Slide Down
x : Dead Note
            
Submit corrections


        High Hopes lessons Hard to play? Try these video lessons and learn fast High Hopes lessons
        
↑ Back to top | Tablatures and chords for acoustic guitar and electric guitar, ukulele, drums are parodies/interpretations of the original songs. You may use it for private study, scholarship, research or language learning purposes only