» » »

Nightwish - Elan Tabs

Artists:  A B C D E F G H I J K L M N O P Q R S T U V W X Y Z # 

Elan Tabs

(ver. 1) Click to play this song!
Nightwish
 Rating:
4.3/5 (18 votes)

 Elan  lessons Tabs too difficult? Try these video lessons and learn fast
 
                (0:14)
d|-----------------------------------------------|
A|-----------------------------------------------|
F|-9----9---------7----9----7-9--9-9-5----7----9-|
C|-9----9----5----7----9----7-9--9-9-5----7----9-|
G|-7----7----5----5----7----5-7--7-7-3----5----7-|
D|-----------3---------------------------------0-|
                       !    ! !

(0:53)
d|-------------------------------------------------------------------|
A|---------------------8---------------------------------8-----------|
F|-----9-------9-----7---7-----5---------9-------4-----7---7-----7---|
C|---9---9---9---9-5---------7---9-----9---9---5---5-5---------7---7-|
G|-7-------7---------------5-------5-7-------3---------------5-------|
D|-------------------------------------------------------------------|
   . . . . . . . . . . . . . . . . . . . . . . . . . . . . . . . . .

d|-----------------------------------------------------------------------------------|
A|---------------------8---------------8-------8-------10---------10-----------------|
F|-----9-------9-----7---7-----5-----7---7---7---7---9----9-----9----9-------5-----7-|
C|---9---9---9---9-5---------7---9-5-------5-------7--------7-7--------7---5-----7---|
G|-7-------7---------------5---------------------------------------------3-----5-----|
D|-----------------------------------------------------------------------------------|
   . . . . . . . . . . . . . . . . . . . . . . . . . . . . . . . . . . . . . . . . .

(1:10)
d|---------------------------------------|
A|---------------------------------------|
F|-9----9\----------------------------7--|
C|-9----9\-------------------------5--7--|
G|-7----7\-2-2-2-2-2-2-2-2-2-2-2-2-5--5--|
D|-0-------0-0-0-0-0-0-0-0-0-0-0-0-3-----|
           . . . . . . . . . . . .

(1:17)
d|-----------------------------------------------------------------|
A|-----------------------------------------------------------------|
F|---------------------------------7-----7-----7\4-----------------|
C|-2-----2-----2---5-----5-----5---7-7-7-7-7-7-7\4-7-----7-----7\5-|
G|-2-2-2-2-2-2-2-2-5-5-5-5-5-5-5-5-5-5-5-5-5-5-5\2-7-7-7-7-7-7-7\5-|
D|-0-0-0-0-0-0-0-0-3-3-3-3-3-3-3-3-----------------5-5-5-5-5-5-5\3-|
     . .   . .   .   . .   . .   .   . .   . .       . .   . .

d|---------------------------------------------------------------|
A|---------------------------------------------------------------|
F|---------------------------------7-----7-----7-----7-----5--7--|
C|-2-----2-----2---5-----5-----5---7-7-7-7-7-7-7-7-7-7-7-7-5--7--|
G|-2-2-2-2-2-2-2-2-5-5-5-5-5-5-5-5-5-5-5-5-5-5-5-5-5-5-5-5-3--5--|
D|-0-0-0-0-0-0-0-0-3-3-3-3-3-3-3-3-------------------------------|
     . .   . .   .   . .   . .   .   . .   . .   . .   . .

d|-----------------------------------------------------------------|
A|-----------------------------------------------------------------|
F|---------------------------------7-----7-----7\4-----------------|
C|-2-----2-----2---5-----5-----5---7-7-7-7-7-7-7\4-7-----7-----7\5-|
G|-2-2-2-2-2-2-2-2-5-5-5-5-5-5-5-5-5-5-5-5-5-5-5\2-7-7-7-7-7-7-7\5-|
D|-0-0-0-0-0-0-0-0-3-3-3-3-3-3-3-3-----------------5-5-5-5-5-5-5\3-|
     . .   . .   .   . .   . .   .   . .   . .       . .   . .

d|-------------------------------------------------------------|
A|-------------------------------------------------------------|
F|-----------------5--5--------7-7-7-7-7-7-7-7-7-7-7-7-7-7-7-7-|
C|-2-----2-----2---5--5--5--5--7-7-7-7-7-7-7-7-7-7-7-7-7-7-7-7-|
G|-2-2-2-2-2-2-2-2-3--3--5--5--5-5-5-5-5-5-5-5-5-5-5-5-5-5-5-5-|
D|-0-0-0-0-0-0-0-0-------3--3----------------------------------|
     . .   . .   . 

(1:47)
d|-----------------------------------------------|
A|-----------------------------------------------|
F|-9----9---------7----9----7-9--9-9-5----7----9-|
C|-9----9----5----7----9----7-9--9-9-5----7----9-|
G|-7----7----5----5----7----5-7--7-7-3----5----7-|
D|-----------3---------------------------------0-|
                       !    ! !

(2:02)
d|-------------------------------------------------------------------|                    \
A|---------------------8---------------------------------8-----------|                    |
F|-----9-------9-----7---7-----5---------9-------4-----7---7-----7---|                    |
C|---9---9---9---9-5---------7---9-----9---9---5---5-5---------7---7-|                    |
G|-7-------7---------------5-------5-7-------3---------------5-------|                    |
D|-------------------------------------------------------------------|                    |
   . . . . . . . . . . . . . . . . . . . . . . . . . . . . . . . . .                      \
                                                                                           }x2
d|------------------------------------------------------------------------------------|   /
A|---------------------8---------------8-------8-------10---------10------------------|   |
F|-----9-------9-----7---7-----5-----7---7---7---7---9----9-----9----9--------5-----7-|   |
C|---9---9---9---9-5---------7---9-5-------5-------7--------7-7--------7----5-----7---|   |
G|-7-------7---------------5----------------------------------------------3-----5-----|   | 
D|------------------------------------------------------------------------------------|   |
   . . . . . . . . . . . . . . . . . . . . . . . . . . . . . . . . . . . . . . . . . .    /

(2:35)
d|---------------------------------------|
A|---------------------------------------|
F|-9----9\----------------------------7--|
C|-9----9\-------------------------5--7--|
G|-7----7\-2-2-2-2-2-2-2-2-2-2-2-2-5--5--|
D|-0-------0-0-0-0-0-0-0-0-0-0-0-0-3-----|
           . . . . . . . . . . . .

(2:43)
A|-----------------------------------------------------------------|
F|---------------------------------7-----7-----7\4-----------------|
C|-2-----2-----2---5-----5-----5---7-7-7-7-7-7-7\4-7-----7-----7\5-|
G|-2-2-2-2-2-2-2-2-5-5-5-5-5-5-5-5-5-5-5-5-5-5-5\2-7-7-7-7-7-7-7\5-|
D|-0-0-0-0-0-0-0-0-3-3-3-3-3-3-3-3-----------------5-5-5-5-5-5-5\3-|
     . .   . .   .   . .   . .   .   . .   . .       . .   . .

d|---------------------------------------------------------------|
A|---------------------------------------------------------------|
F|---------------------------------7-----7-----7-----7-----5--7--|
C|-2-----2-----2---5-----5-----5---7-7-7-7-7-7-7-7-7-7-7-7-5--7--|
G|-2-2-2-2-2-2-2-2-5-5-5-5-5-5-5-5-5-5-5-5-5-5-5-5-5-5-5-5-3--5--|
D|-0-0-0-0-0-0-0-0-3-3-3-3-3-3-3-3-------------------------------|
     . .   . .   .   . .   . .   .   . .   . .   . .   . .

d|-----------------------------------------------------------------|
A|-----------------------------------------------------------------|
F|---------------------------------7-----7-----7\4-----------------|
C|-2-----2-----2---5-----5-----5---7-7-7-7-7-7-7\4-7-----7-----7\5-|
G|-2-2-2-2-2-2-2-2-5-5-5-5-5-5-5-5-5-5-5-5-5-5-5\2-7-7-7-7-7-7-7\5-|
D|-0-0-0-0-0-0-0-0-3-3-3-3-3-3-3-3-----------------5-5-5-5-5-5-5\3-|
     . .   . .   .   . .   . .   .   . .   . .       . .   . .

d|------------------------------------------------------|
A|------------------------------------------------------|
F|-----------------5---------7--7--7--7--7--7--7--7--9\-|
C|-2-----2-----2---5----5----7--7--7--7--7--7--7--7--9\-|
G|-2-2-2-2-2-2-2-2-3----5----5--5--5--5--5--5--5--5--7\-|
D|-0-0-0-0-0-0-0-0------3-------------------------------|
     . .   . .   . 

(3:28)
d|-----------------------------------------------------------------|
A|-----------------------------------------------------------------|
F|-6-6-6-6-6-6-6-6-6-6-6-6-6-6-6-6---------------------------------|
C|-6-6-6-6-6-6-6-6-6-6-6-6-6-6-6-6-2-2-2-2-2-2-2-2-4-4-4-4-4-4-4-4-|
G|-4-4-4-4-4-4-4-4-4-4-4-4-4-4-4-4-2-2-2-2-2-2-2-2-4-4-4-4-4-4-4-4-|
D|---------------------------------0-0-0-0-0-0-0-0-2-2-2-2-2-2-2-2-|

d|-------------------------------------------------------------|
A|-------------------------------------------------------------|
F|-6-6-6-6-6-6-6-6-9-9-9-9-9-9-9-9-4-4-4-4-4-4-4-4-4--4--------|
C|-6-6-6-6-6-6-6-6-9-9-9-9-9-9-9-9-4-4-4-4-4-4-4-4-4--4--4--4--|
G|-4-4-4-4-4-4-4-4-7-7-7-7-7-7-7-7-2-2-2-2-2-2-2-2-2--2--4--4--|
D|-------------------------------------------------------2--2--|
                                                   !  !  !  !

(3:44)
d|-------------------------------------------------------------|
A|-------------------------------------------------------------|
F|-------------3-3-3-3-3-3-3-3-----------------5-5-5-5-5-5-5-5-|
C|-5-5-5-5-5-5-3-3-3-3-3-3-3-3-3-3-3-3-3-3-3-3-5-5-5-5-5-5-5-5-|
G|-5-5-5-5-5-5-1-1-1-1-1-1-1-1-3-3-3-3-3-3-3-3-3-3-3-3-3-3-3-3-|
D|-3-3-3-3-3-3-----------------1-1-1-1-1-1-1-1-----------------|

d|----------------------------------------------------------------------------|
A|----------------------------------------------------------------------------|
F|-----------------8-8-8-8-8-8-8-8-10-10-10-10-10-10-10-10-10-10-10-10--------|
C|-5-5-5-5-5-5-5-5-8-8-8-8-8-8-8-8-10-10-10-10-10-10-10-10-10-10-10-10-8--10--|
G|-5-5-5-5-5-5-5-5-6-6-6-6-6-6-6-6-8--8--8--8--8--8--8--8--8--8--8--8--6--8---|
D|-3-3-3-3-3-3-3-3-----------------------------------------------------6--8---|

d|-------------------------------------------------------------|
A|-------------------------------------------------------------|
F|-------------3-3-3-3-3-3-3-3-----------------5-5-5-5-5-5-5-5-|
C|-5-5-5-5-5-5-3-3-3-3-3-3-3-3-3-3-3-3-3-3-3-3-5-5-5-5-5-5-5-5-|
G|-5-5-5-5-5-5-1-1-1-1-1-1-1-1-3-3-3-3-3-3-3-3-3-3-3-3-3-3-3-3-|
D|-3-3-3-3-3-3-----------------1-1-1-1-1-1-1-1-----------------|

d|-----------------------------------------------------------|
A|-----------------------------------------------------------|
F|-----------------8--8--------------------------------------|
C|-5-5-5-5-5-5-5-5-8--8--8--8--3-3-3-3-3-3-3-3-3-3-3-3-------|
G|-5-5-5-5-5-5-5-5-6--6--8--8--3-3-3-3-3-3-3-3-3-3-3-3-3-3-3-|
D|-3-3-3-3-3-3-3-3-------6--6--1-1-1-1-1-1-1-1-1-1-1-1-1-1-1-|
                                                       . . .
(4:13)
d|-----3-------------3----------------------------------------------|
A|-/3-----3-------------3v-----5/6v-6-3-------3----/10--8-8h10p8-6--|
F|-----------5p3-5/7-------5p3----------5-3-5---5-------------------|
C|------------------------------------------------------------------|
G|------------------------------------------------------------------|
D|------------------------------------------------------------------|

d|-----3-------------3-------------------------------------------|
A|-/3-----3-------------3v-----/8v--8---------3------------------|
F|-----------5p3-5/7-------5p3--------7-5\3-5---5--2--0-0h2p0----|
C|------------------------------------------------------------3--|
G|---------------------------------------------------------------|
D|---------------------------------------------------------------|            
Submit corrections


        Elan  lessons Hard to play? Try these video lessons and learn fast Elan  lessons
        
↑ Back to top | Tablatures and chords for acoustic guitar and electric guitar, ukulele, drums are parodies/interpretations of the original songs. You may use it for private study, scholarship, research or language learning purposes only