» » »

Nick Lachey - What's Left Of Me Tabs

Artists:  A B C D E F G H I J K L M N O P Q R S T U V W X Y Z # 

What's Left Of Me Tabs

(ver. 2) Click to play this song!
Nick Lachey
 Rating:
4/5 (9 votes)

 What's Left Of Me lessons Tabs too difficult? Try these video lessons and learn fast
 
                (Intro)
The other intro was in the right tune, but in the wrong octive.  This is exactly with
song.  The * by the 7 and 12 in the first part means that they're the same note, just play
one that's easier for you.  Just listen to the song for the tempo, because some parts 
played faster than others.  Let me know what you think of the tab.

Standard tuning:

E|--------8---------8----------------------------------|
B|----------10--------10-------------------------------|
G|-----10--------10------7*---10--10-10----10-9--------|
D|---8-------------------12*------10----10-------------|
A|-------------8---------------------------------------|
E|-----------------------------------------------------|

E|--------8---------8--------------------|
B|----------10--------10-8---------------|
G|-----10--------10----------------------|
D|---8-----------------------------------|
A|-------------8-------------------------|
E|---------------------------------------|

-Paul Dennis
            
Submit corrections


        What's Left Of Me lessons Hard to play? Try these video lessons and learn fast What's Left Of Me lessons
        
↑ Back to top | Tablatures and chords for acoustic guitar and electric guitar, ukulele, drums are parodies/interpretations of the original songs. You may use it for private study, scholarship, research or language learning purposes only