» » »

Nick Lachey - What's Left Of Me Tabs

Artists:  A B C D E F G H I J K L M N O P Q R S T U V W X Y Z # 

What's Left Of Me Tabs

(ver. 1) Click to play this song!
Nick Lachey
 Rating:
4/5 (4 votes)

 What's Left Of Me lessons Tabs too difficult? Try these video lessons and learn fast
 
                tuning: standard

INTRO:
  Bbadd9           F          Dm7       Csus         C
e|--1--------------1-----------1---------3-------3----3-----------------|
B|--1--------------1-----------1---------6-------6----5-----------------|
G|--3--------------2-----------2---------5-------5----5-----------------|
D|--3--------------3-----------0---------5-------5----5-----------------|
A|--1--------------3---------------------3-------3----3-----------------|
E|--x--------------1---------------------x-------x----x-----------------|


   Bbadd9          F                 Csus   C
e|--1--------------1-------------------3-----3----|
B|--1--------------1-------------------6-----5----|
G|--3--------------2-------------------5-----5----|
D|--3--------------3-------------------5-----5----|
A|--1--------------3-------------------3-----3----|
E|--x--------------1-------------------x-----3----|


VERSE:
   Bbadd9          F          Dm7       Csus          C
e|--1--------------1-----------1---------3-------3----3-----------------|
B|--1--------------1-----------1---------6-------6----5-----------------|
G|--3--------------2-----------2---------5-------5----5-----------------|
D|--3--------------3-----------0---------5-------5----5-----------------|
A|--1--------------3---------------------3-------3----3-----------------|
E|--x--------------1---------------------x-------x----x-----------------|
       wacthed my life pass me by in the rearview mirror

   Bbadd9          F           Dm7       C      Csus  C
e|--1--------------1-----------1---------3-------3----3-----------------|
B|--1--------------1-----------1---------5-------6----5-----------------|
G|--3--------------2-----------2---------5-------5----5-----------------|
D|--3--------------3-----------0---------5-------5----5-----------------|
A|--1--------------3---------------------3-------3----3-----------------|
E|--x--------------1---------------------x-------x----x-----------------|
          pictures frozen in time are becoming clearer

   Bbadd9               Dm7
e|--1--------------------1----------------------------|
B|--1--------------------1----------------------------|
G|--3--------------------2----------------------------|
D|--3--------------------0----------------------------|
A|--1-------------------------------------------------|
E|--x-------------------------------------------------|
   I don't wanna waste another day

   Csus                     G           Ebadd9
e|--3-----------------------3------------6------------------------------|
B|--6-----------------------3------------6------------------------------|
G|--5-----------------------4------------0------------------------------|
D|--5-----------------------5------------5------------------------------|
A|--3-----------------------5------------6------------------------------|
E|--x-----------------------3-------------------------------------------|
   stuck on the shadows of my mistakes   yeah

CHORUS
         Cadd9             Em        D
e|---------3---------------0---------2----------------------------------|
B|---------3---------------0---------3----------------------------------|
G|---------0---------------0---------2----------------------------------|
D|---------2---------------2---------0----------------------------------|
A|---------3---------------2--------------------------------------------|
E|-------------------------0--------------------------------------------|
  'cause I want you and I feel you crawling underneath my skin

          Cadd9           Em         D
e|---------3---------------0---------2----------------------------------|
B|---------3---------------0---------3----------------------------------|
G|---------0---------------0---------2----------------------------------|
D|---------2---------------2---------0----------------------------------|
A|---------3---------------2--------------------------------------------|
E|-------------------------0--------------------------------------------|
   like a hunger like a burning to find a place I've never been

         Am              Em        D              A              Am7
e|--------0---------------0---------2-------------0---------------0-----|
B|--------1---------------0---------3-------------2---------------1-----|
G|--------2---------------0---------2-------------2---------------0-----|
D|--------2---------------2---------0-------------2---------------2-----|
A|--------0---------------2-----------------------0---------------0-----|
E|------------------------0---------------------------------------------|
 now I'm broken and I'm fading I'm half the man I thought I would be

          G     Cadd9
e|--------3-----3-------------------------------------------------------|
B|--------3-----3-------------------------------------------------------|
G|--------0-----0-------------------------------------------------------|
D|--------0-----2-------------------------------------------------------|
A|--------2-----3-------------------------------------------------------|
E|----------------------------------------------------------------------|
  but you can have what's left of me

    Cadd9   G      Em    Dsus
e|----3-----3------3------3----------------------|
B|----3-----3------3------3----------------------|
G|----0-----0------0------2----------------------|
D|----2-----0------2------0----------------------|
A|----3-----2------2-----------------------------|
E|----------3------0-----------------------------|


VERSE:
  Bbadd9           F          Dm7       Csus          C
e|--1--------------1-----------1---------3-------3----3-----------------|
B|--1--------------1-----------1---------6-------6----5-----------------|
G|--3--------------2-----------2---------5-------5----5-----------------|
D|--3--------------3-----------0---------5-------5----5-----------------|
A|--1--------------3---------------------3-------3----3-----------------|
E|--x--------------1---------------------x-------x----x-----------------|
      I've been  dying        inside   little by little

   Bbadd9                  F           Dm7      C      Csus   C
e|--1----------------------1-----------1---------3-------3----3-------|
B|--1----------------------1-----------1---------5-------6----5-------|
G|--3----------------------2-----------2---------5-------5----5-------|
D|--3----------------------3-----------0---------5-------5----5-------|
A|--1----------------------3---------------------3-------3----3-------|
E|--x----------------------1---------------------x-------x----x-------|
   nowhere to go I'm going outta my mind     an endless circle

   Bbadd9               Dm7
e|--1--------------------1----------------------------|
B|--1--------------------1----------------------------|
G|--3--------------------2----------------------------|
D|--3--------------------0----------------------------|
A|--1-------------------------------------------------|
E|--x-------------------------------------------------|
   running from      myself until

     Csus                     G           Ebadd9
e|----3-----------------------3------------6----------------------------|
B|----6-----------------------3------------6----------------------------|
G|----5-----------------------4------------0----------------------------|
D|----5-----------------------5------------5----------------------------|
A|----3-----------------------5------------6----------------------------|
E|----x-----------------------3-----------------------------------------|
  you gave me a reason for standing still

  (chorus)
    
            G  Cadd9                   Em             D
e|----------3---3----------------------0--------------2-----------------|
B|----------3---3----------------------0--------------3-----------------|
G|----------0---0----------------------0--------------2-----------------|
D|----------0---2----------------------2--------------0-----------------|
A|----------2---3----------------------2--------------0-----------------|
E|-------------------------------------0--------------2-----------------|
 ...but you can have what's left of me falling faster barely breathing

   Cadd9             Am
e|--3-----------------0-----------------|
B|--3-----------------1-----------------|
G|--0-----------------2-----------------|
D|--2-----------------2-----------------|
A|--3-----------------0-----------------|
E|--------------------------------------|
   give me something to believe in

  Em                D        Fmaj7
e|-0----------------2---------0-----------------------------------------|
B|-0----------------3---------1-----------------------------------------|
G|-0----------------2---------2-----------------------------------------|
D|-2----------------0---------3-----------------------------------------|
A|-2----------------0---------3-----------------------------------------|
E|-0----------------2---------1-----------------------------------------|
  tell me it's not all in my head

INSTRUMENTAL:
    Cadd9   G     Em   Dsus      D
e|----3-----3-----3-----3---3----2----------|
B|----3-----3-----3-----3---3----3----------|
G|----0-----0-----0-----2---2----2----------| 2x
D|----2-----0-----2-----0---0----0----------|
A|----3-----2-----2-------------------------|
E|----------3-----0-------------------------|

    Cadd9           Em           Dsus
e|----3--------------3------------3-------------------------------------|
B|----3--------------3------------3-------------------------------------|
G|----0--------------0------------2-------------------------------------|
D|----2--------------2------------0-------------------------------------|
A|----3--------------2--------------------------------------------------|
E|-------------------0--------------------------------------------------|
        take what's left of this man

    Cadd9            Em         Dsus
e|----3--------------3------------3-------------------------------------|
B|----3--------------3------------3-------------------------------------|
G|----0--------------0------------2-------------------------------------|
D|----2--------------2------------0-------------------------------------|
A|----3--------------2--------------------------------------------------|
E|-------------------0--------------------------------------------------|
            make me whole once again

(chorus)

        G      Cadd9            Am             Fmaj7
e|------3-------3---------------0---------------0-----------------------|
B|------3-------3---------------1---------------1-----------------------|
G|------0-------0---------------2---------------2-----------------------|
D|------0-------2---------------2---------------3-----------------------|
A|------2-------3---------------0---------------3-----------------------|
E|----------------------------------------------1-----------------------|
 ...but you can have all that's left yeah yeah yeah what's left of me

 (repeat instrumental)

  Cadd9        Em                  D
e|-3-----------0-------------------2------------------------------------|
B|-3-----------0-------------------3------------------------------------|
G|-0-----------0-------------------2------------------------------------|
D|-2-----------2-------------------0------------------------------------|
A|-3-----------2--------------------------------------------------------|
E|-------------0--------------------------------------------------------|
     I've been dying inside you see

  Cadd9       Em                   D
e|-3-----------0-------------------2------------------------------------|
B|-3-----------0-------------------3------------------------------------|
G|-0-----------0-------------------2------------------------------------|
D|-2-----------2-------------------0------------------------------------|
A|-3-----------2--------------------------------------------------------|
E|-------------0--------------------------------------------------------|
    I'm going out of my mind out my mind I'm just running in circles all

      Cadd9         G            Em         Dsus         Cadd9
e|-----3------------3------------3------------3-------------3-----------|
B|-----3------------3------------3------------3-------------3-----------|
G|-----0------------0------------0------------2-------------0-----------|
D|-----2------------0------------2------------0-------------2-----------|
A|-----3------------2------------2--------------------------3-----------|
E|------------------3------------0--------------------------------------|
  the time  can you take what's left can you take what's left

           G           Em         Dsus
e|---------3-----------3-----------3----------|
B|---------3-----------3-----------3----------|
G|---------0-----------0-----------2----------|
D|---------0-----------2-----------0----------|
A|---------2-----------2----------------------|
E|---------3-----------0----------------------|
   can you take what's left of me take what's left of me
            
Submit corrections


        What's Left Of Me lessons Hard to play? Try these video lessons and learn fast What's Left Of Me lessons
        
↑ Back to top | Tablatures and chords for acoustic guitar and electric guitar, ukulele, drums are parodies/interpretations of the original songs. You may use it for private study, scholarship, research or language learning purposes only