» » »

Nickel Creek - When In Rome (mando Tabs

Artists:  A B C D E F G H I J K L M N O P Q R S T U V W X Y Z # 

When In Rome (mando Tabs

(ver. 3) Click to play this song!
Nickel Creek
 Rating:
4/5 (4 votes)

 When In Rome (mando lessons Tabs too difficult? Try these video lessons and learn fast
 
                (Intro)


E----------------------------------8--5--31----------------------------------------------------
A------0----3--3s5--55s8-7-5---------------5--3s5--------------------------------------
D---0----0-----0----------------0---------------0--0-----------------------------------------
G------------------------------------------------------------------------------------------------


E------------------------------------------------------------------------------------------------
A------0----3--3s5--55s8-7-5--3-0-------------------------------------------------------
D---0----0-----0----------------0-------3h5--5-5------------------------------------------
G------------------------------------------------------------------------------------------------



E----------------------------------8--5--31---------------------------------------------------
A------0----3--3s5--55s8-7-5---------------5--3s5-------------------------------------
D---0----0-----0----------------0---------------0--0----------------------------------------
G------------------------------------------------------------------------------------------------


E----------------------------------------------------------------------------------------------
A------0----3--3s5--55s8-7-5--3-0-----------------------------------------------------
D---0----0-----0----------------0-------3h5--5-5----5-3-0-3-3h5---5-3-0-----------
G--------------------------------------------------------------------------------------5--5h7
            
Submit corrections


        When In Rome (mando lessons Hard to play? Try these video lessons and learn fast When In Rome (mando lessons
        
↑ Back to top | Tablatures and chords for acoustic guitar and electric guitar, ukulele, drums are parodies/interpretations of the original songs. You may use it for private study, scholarship, research or language learning purposes only