» » »

Nickel Creek - When In Rome (guitar!!!) Chords

Artists:  A B C D E F G H I J K L M N O P Q R S T U V W X Y Z # 

When In Rome (guitar!!!) Chords

(ver. 1) Click to play this song!
Nickel Creek
 Rating:
4/5 (4 votes)

 When In Rome (guitar!!!) lessons Tabs too difficult? Try these video lessons and learn fast
 
                this sounds just like it on the cd


note: u dont have to the play
the (2) in the intro u could though

intro:

e---3-----
b---3-----
g---0-(2)-
d---0-----
a---0-----
e----------


1st verse: (strum once)

where can a sick man go when he cant

--3-----------------------------0----------
--3-------------3-------------3-3----------
--2-------------2-------------2-2----------
--0-------------0-------------0-0----------
--0-------------0---------------------------
---------------------------------------------

choke down the medicen the old doc knows

-------------------------------------------------
-------------------------------------------3----
-------------------------------------------2---
-------------------------------------------0----
-------------------------------------------0----
-------------------------------------------------

A specialist came to town, but he stays
-----5------------------------------------3-----
-----3------------------------------------3-----
-----3------------------------------------3-----
-----5------------------------------------5-----
-------------------------------------------------
-------------------------------------------------


at home saying no one knows
----------------------5----------
----------------------3----------
----------------------3----------
----------------------5----------
---------------------------------
---------------------------------

so I don't Honey, when in Rome
---------------------------3-----
---------------------------3-----
---------------------------3-----
---------------------------5-----
---------------------------------
---------------------------------


(repeat into, just strum tha chord over and over)



2nd verse: (just keep on strumming)

where can a teacher go.....
---3-----5------3--------5---------
---3-----3------3--------3----------
---2-----2------2--------2----------
---0-----0------0--------0----------
---0-----0------0--------0----------
---------------------------------------


hey those books you gave us..

----------------5----------------
----------------3----------------
----------------3----------------
----------------5----------------
----------------0-----------------
---------------------------------

look good on the shelves at home

---------3---------------5--------------3-----
---------3---------------3--------------3----
---------3---------------3--------------3------
---------5---------------5--------------5-----
---------0---------------0--------------0----
-----------------------------------------------



And they'll burn warm in the fireplace

-----------------5---------------------3-----
-----------------3---------------------3----
-----------------3---------------------3------
-----------------5---------------------5-----
-----------------0---------------------0----
----------------------------------------------

Teacher, when in Rome

---------------5--------------------
---------------5--------------------
---------------7--------------------
---------------7--------------------
---------------0--------------------
------------------------------------



bridge:

Grab a blanket, sister We'll make

-----------0----------3----------
-----------3----------3----------
-----------2----------3----------
-----------3----------5----------
-----------1----------5----------
----------------------3----------


we'll make smoke signals bring...

--------------5----------------------
--------------5----------------------
--------------6----------------------
--------------7----------------------
--------------7----------------------
--------------5----------------------

(repeat thoughs three chords)


then play..



---------------1---------------------
---------------3---------------------
---------------3---------------------
---------------3---------------------
---------------1---------------------
---------------1---------------------


stuck, in rome

-0----------------3-----
-1----------------3----- (repeat intro)
-0----------------2-----
-2----------------0-----
-3----------------0-----
-0----------------------



3rd verse:



Where can a dead man go The question with an answer only dead men know But I'm


gonna bet they never really feel at

---------5--------3-------5----
---------3--------3-------3----
---------3--------3-------3----
---------5--------5-------5----
---------------------------------
---------------------------------


home, if they spend a life time learning

---3---------------5--------------------3----
---3---------------3--------------------3----
---3---------------3--------------------3----
---5---------------5--------------------5----
---0---------------0--------------------0----
-----------------------------------------------





how to live in rome

---------------------------
-----------5----------------
-----------7----------------
-----------7---------------
---------------------------
---------------------------


(repeate the intro and the bridge)  
            
Submit corrections


        When In Rome (guitar!!!) lessons Hard to play? Try these video lessons and learn fast When In Rome (guitar!!!) lessons
        
↑ Back to top | Tablatures and chords for acoustic guitar and electric guitar, ukulele, drums are parodies/interpretations of the original songs. You may use it for private study, scholarship, research or language learning purposes only