» » »

Nickel Creek - Speak Tabs

Artists:  A B C D E F G H I J K L M N O P Q R S T U V W X Y Z # 

Speak Tabs

(ver. 2) Click to play this song!
Nickel Creek
 Rating:
4/5 (4 votes)

 Speak lessons Tabs too difficult? Try these video lessons and learn fast
 
                (Intro)
Intro to "Speak" by Nickel Creek

TablEdited by D. Scott Murphy
Tuning : F# B E A C# F# 	Time Signature: 4/4

 |       |       |       |        |       |       |       |        
|--------------------0-----------|--------------------------------|
|------------0-------------------|--------------------4-----------|
|--------------------------------|------------4-------------------|
|--------2-----------------------|--------2-----------------------|
|0-------------------------------|--------------------------------|
|--------------------------------|4-------------------------------|

 |       |       |       |        |       |       |       |        
|--------------------------------|--------------------------------|
|------------3-------2-----------|--------3---------------3-------|
|------------2---------------2---|--------2---------------2-------|
|--------0-------------------0---|--------0---------------0-------|
|--------------------------------|--------------------------------|
|3-------------------------------|2---------------2---------------|

 |       |       |       |        |       |       |       |        
|--------------------------------|------------------------0-------|
|--------------------0-----------|--------------------------------|
|------------2---------------1---|--------------------------------|
|--------2---------------2-------|--------2-----------------------|
|--------------------------------|--------------------------------|
|0-------------------------------|----------------0---------------|

 |       |       |       |        |       |       |       |        
|--------------------------------|------------------------0-------|
|--------------------0-----------|--------------------------------|
|------------2---------------1---|--------------------------------|
|--------2---------------2-------|--------2-----------------------|
|--------------------------------|--------------------------------|
|0-------------------------------|----------------0---------------|


            
Submit corrections


        Speak lessons Hard to play? Try these video lessons and learn fast Speak lessons
        
↑ Back to top | Tablatures and chords for acoustic guitar and electric guitar, ukulele, drums are parodies/interpretations of the original songs. You may use it for private study, scholarship, research or language learning purposes only