» » »

Nickel Creek - Speak Tabs

Artists:  A B C D E F G H I J K L M N O P Q R S T U V W X Y Z # 

Speak Tabs

(ver. 1) Click to play this song!
Nickel Creek
 Rating:
4/5 (4 votes)

 Speak lessons Tabs too difficult? Try these video lessons and learn fast
 
                
[Intro]
   Asus2        Emaj7/G# b        A/G          D/F#
e|---------0-------------------|----------------------2---|
B|------------------------4----|----3----2--2----3----3---|
G|----4--------------4---------|----2-----------2-----2---|
D|--2--------2----2----------2-|--2--------0--------------|
A|0-----0----------------------|--------------------------|
E|---------------4------4-------|-3-----3------2----2-----|

  Esus4         E         Esus4                     E
e|--------------------0|--------------------------------|
B|-------0-------------|--------------------------------|
G|---2-------1---------|--same as before----------------|
D|--2-------2-----2----|--------------------------------|
A|---------------------|--------------------------------|
E|-0---0-------0----0--|--------------------------------|


[Verse]
  Asus2#4       Emaj7/G#       A/G            Dadd9/F#
 well I sat    down next to a      pho  to   graph
e|-----------0---------------|--------------------0-----0--|
B|-------4-------------4-----|----3---2-----------3-----3--|
G|---4-------------4---------|----2---------2-----2-----2--|
D|--2------2------2---------2|--2---------0----------------|
A|-0---0---------------------|-----------------------------|
E|--------------4----4-------|-3----3----------2-----2-----|

  Asus2#4         Emaj7/G#     A/G              Dadd9/F#
    tried my   best al..mostn      made  her     laugh
e|------------0---------------|---------------------0----0-|
B|--------4--------------4----|-----3----2----------3----3-|
G|---4------------4-----------|-----2---------2-----2----2-|
D|--2-------2----2---------2--|---2----------0-------------|
A|-0---0----------------------|----------------------------|
E|--------------4----4--------|-3------3---------2----2----|

  Asus2          F#m11             B5
  She    was my toughest crowd.......
e|-----------------------------|---------------------------|
B|-------0---------0-------0---|----------0----------0-----|
G|---2--------------2----------|------4----------4---------|
D|--2------2-----------------2-|-----4------4---4------4---|
A|-0---0-----------------------|-1-2----2-----2----2-------|
E|---------------2-------2-----|---------------------------|

  Asus2           D/F#           Gadd9          Bm
   There in the way..... was a   moun...tain up in the.....
e|-----------------------------|---------------------0-----|
B|--------0----------------3---|------------------3------0-|
G|---2---------------2---------|-0---2----2-----4------0---|
D|--2-------2-------0---------0|---0--------0--------------|
A|-0----0----------------------|---------------2----2------|
E|----------------2-----2------|-3-------3-----------------|
 Cmaj7
 clouds......................!

e|-----------------------------|---------------------------|
B|-----------------------------|---------------------------|
G|-----------------------------|---------------------------|
D|-----------------------------|---------------------------|
A|--3--------------------------|---------------------------|
E|-----------------------------|---------------------------|

[Verse]
Asus2#4 Emaj7/g# A/G Dadd9/F# Asus2#4 Emaj7/G#
 A/G  Dadd9/F# Asus2  F#m11 B5 Asus2 D/F# Gadd9 Bm into the

[Pre-Chorus]
                                  C               Em7
      END OF VERSE               climb......     but through
e|-----------------------------|---------------------------|
B|-----------------------------|-----0---0------0-----3----|
G|-----------------------------|----2-----2---2---------2--|
D|-----------------------------|-2-3---3-------------------|
A|-----------------------------|-----------0-------0-------|
E|-----------------------------|---------------------------|

 Dsus2            Cadd9                    Em7
 fail   ure  I'll proceed..... she'll see how far I've
e|-------0--------------------|---------------------------|
B|---3------------------3-----|---------3-------------3---|
G|--2-------0-------0---------|-----0-------------0-------|
D|-0-------0------2---------2-|----2------2-----2--------2|
A|-----0--------3-----3-------|-3-----3-------------------|
E|----------------------------|---------------0------0----|

[Chorus]
 Dsus2                          B
 come.....            And its   you      and   me  in  the

e|---------0--------------------|----------2---------------|
B|---3----------3---------------|-------4---------------4--|
G|--2---------2-----------------|---4------------4---------|
D|-0----------------0-----------|--4------4-----4---------4|
A|------0-----------------------|-2---2-------2------2-----|
E|------------------------------|--------------------------|

 Cmaj7                            Fadd9/A
 sun    and   sea      I'll     of        fer          my

e|-------------0---------------|---------------------------|
B|----------0------------0-----|--------1------------1-----|
G|------5-----------5----------|----0------------0---------|
D|-----5------5----5--------5--|---3------3----3--------3--|
A|-2-3----3-------3----3-------|-0----0-----0------0-------|
E|-----------------------------|---------------------------|

 E                              B
 arm     to      yours.    It   seems       to me       no
e|-----------------------------|-----------------2----------|
B|-----------------------------|-----------4-------------4--|
G|-----------------------------|------4--------------4------|
D|-----------------------------|----4--------4------4------4|
A|--------0--------2-----------|-2-------2---------2---2----|
E|-0---------------------------|----------------------------|
 Cmaj7                         Fadd9/A
 ...mys    ter  y.          It   is       n't         so

e|--------------0--------------|---------------------------|
B|----------0-------------0----|---------1-------------1---|
G|------5-------------5--------|-----0------------0--------|
D|-----5------5------5-------5-|---3-------3----3---------3|
A|-2-3----3--------3----3------|-0-----0-----0-------0-----|
E|-----------------------------|---------------------------|
 Em                        C5    B5
 I'll      try     hard   to    speak.

e|-----------------------------|---------------------------|
B|-----------------------------|---------------------------|
G|-----------------------------|---------------------------|
D|-----------------------------|---------------------------|
A|-------------------------/-3-|--2------------------------|
E|--0-------2--------3---------|---------------------------|

[Interlude]
  Asus2           Emaj7/G#       A/G             D/F#
e|-------0----------------------|---------------------------|
B|-----------------------4------|------2-----------3-----3--|
G|---4-------------4------------|---2--------2-----2-----2--|
D|--2------2------2--------2----|--2------0--------0-----0--|
A|-0---0------------------------|---------------------------|
E|--------------4-----4---------|-3--------------2----2-----|

  G5                             Asus2
  Da   da   da    da              la   da     da
e|-----------------------------|------------0---------------|
B|---------3---------3---------|--------0-------------0-----|
G|----0--------0-----------0---|---2-------------2----------|
D|---0-------0-----0---------0-|--2-------2-----2--------2--|
A|-----------------------------|-0----0--------0----0-------|
E|-3----3--------3-----3-------|----------------------------|

 E                               Bm
e|----------0-------------------|---------------------------|
B|--0-----0-------------0-------|----------3-------------3--|
G|----1---------1---------------|----4---------4----4-------|
D|-----2-------2----------2-----|---4--------4------4------4|
A|------------------------------|-2-----2---------2----2----|
E|-0---------0----0-------------|---------------------------|            
Submit corrections


        Speak lessons Hard to play? Try these video lessons and learn fast Speak lessons
        
↑ Back to top | Tablatures and chords for acoustic guitar and electric guitar, ukulele, drums are parodies/interpretations of the original songs. You may use it for private study, scholarship, research or language learning purposes only