» » »

Nickel Creek - Somebody More Like You Tabs

Artists:  A B C D E F G H I J K L M N O P Q R S T U V W X Y Z # 

Somebody More Like You Tabs

(ver. 3) Click to play this song!
Nickel Creek
 Rating:
4.3/5 (6 votes)

 Somebody More Like You lessons Tabs too difficult? Try these video lessons and learn fast
 
                (another tab brought to you by Fred "Mutha f**kin'" Ramsey)


e----------------------------------------------------------------------------|
B------------------------5-7/9-9-----7---------7-----5---------2-----0-------|
G--------------------6-------------------------------------------------------|
D------------------6---6-----------------------------------------------------|
A4-4-4-4-4-4-4-4-4-----------------------------------------------------------|
E------------------------------7-7-7-7-7-7-7-7-5-5-5-5-5-5-5-5-0-0-0-0-0-0-0-|


e-------------------------------------------------|
B-----------0-2-4-5---------5-7/9-9---------------|
G-----------------------6-----------------8-------|
D-------4-------------6---6-----------------------|
A-----4---4---------4-----------------------------|
E-1-2-----------------------------8-8-8-8-8-8-8-8-|


e-------------------------------------------------------------|
B---------5-7/9-9-----7---------7-----5---------2-----0-------|
G-----6-------------------------------------------------------|
D---6---6-----------------------------------------------------|
A-4-----------------------------------------------------------|
E---------------7-7-7-7-7-7-7-7-5-5-5-5-5-5-5-5-0-0-0-0-0-0-0-|


e-----------------------------------------------------------------------------|
B-----------0-2-4-5---------5-7/9-9-------7-------5---------------------------|
G-----------------------6-----------------------------------------------------|
D-------4-------------6---6---------------------------------------------------|
A-----4---4---------4---------------------------------------------------------|
E-1-2-----------------------------7-7-7-7-7-7-7-7-0-0-0-0-0-0-0-0-0-0-0-0-0-0-|
            
Submit corrections


        Somebody More Like You lessons Hard to play? Try these video lessons and learn fast Somebody More Like You lessons
        
↑ Back to top | Tablatures and chords for acoustic guitar and electric guitar, ukulele, drums are parodies/interpretations of the original songs. You may use it for private study, scholarship, research or language learning purposes only