» » »

Nickel Creek - Somebody More Like You Tabs

Artists:  A B C D E F G H I J K L M N O P Q R S T U V W X Y Z # 

Somebody More Like You Tabs

(ver. 2) Click to play this song!
Nickel Creek
 Rating:
4/5 (8 votes)

 Somebody More Like You lessons Tabs too difficult? Try these video lessons and learn fast
 
                
Tuning: Eb (Eb Ab Db Gb Bb eb)


Chords Used:
Dm5: x57xxx
C5:  x35xxx
Bb5: x13xxx
F5:  13xxxx
G5:  35xxxx
C#m: x42xxx
C:   x32010
Bb:  688766
F:   133211
Gm:  355333
A7*: 545xxx


Intro:

e--------------------------------------------------|
B--------------------------------------------------|
G--------------------------------------------------|
D--0--0--0--0--0--0--0--0--0--0--0--0--0--0--0--0--|
A--------------------------------------------------|
E--------------------------------------------------|

e--------------1-3-3/5--5------3------------------3------1-------------|
B--------3-------------------------------------------------------------|
G-----2-----2----------------------------------------------------------|
D--0-------------------------------------------------------------------|
A-------------------------3--3---3--3--3--3--3--0h1-1--1---1--1--1--1--|
E----------------------------------------------------------------------|

e------------------------------------0-1----------1-3-3/5-5---------0----------|
B--3------1----------------------1-3---------3---------------------------------|
G---------------------------3--------------2---2-------------------------------|
D-------------------------0--------------0-------------------------------------|
A-----------------------------------------------------------4--4--4---4--4--4--|
E----1--1---1--1--1--2--3-----3------------------------------------------------|

e--------------1-3-3/5--5------3------------------3------1-------------|
B--------3-------------------------------------------------------------|
G-----2-----2----------------------------------------------------------|
D--0-------------------------------------------------------------------|
A-------------------------3--3---3--3--3--3--3--0h1-1--1---1--1--1--1--|
E----------------------------------------------------------------------|

e------------------------------------0-1----------1-3-3/5-5---------3----------|
B--3------1----------------------1-3---------3---------------------------------|
G---------------------------3--------------2---2-------------------------------|
D-------------------------0--------------0-------------------------------------|
A-----------------------------------------------------------3--3--3---3--3--3--|
E----1--1---1--1--1--2--3-----3------------------------------------------------|

e--1------------------------------------------------|
B---------------------------------------------------|
G---------------------------------------------------|
D------------------------------------------------2--|
A---------------------------------------------------|
E----1--1--1--1--1--1--1--1--1--1--1--1--1--1--1----|


Verse 1:
e--------------1-3-3/5--5------3------------------3------1-------------|
B--------3-------------------------------------------------------------|
G-----2-----2----------------------------------------------------------|
D--0-------------------------------------------------------------------|
A-------------------------3--3---3--3--3--3--3--0h1-1--1---1--1--1--1--|
E----------------------------------------------------------------------|
              I didn't hear    you              say you're 

e------------------------------------0-1----------1-3-3/5-5---------0----------|
B--3------1----------------------1-3---------3---------------------------------|
G---------------------------3--------------2---2-------------------------------|
D-------------------------0--------------0-------------------------------------|
A-----------------------------------------------------------4--4--4---4--4--4--|
E----1--1---1--1--1--2--3-----3------------------------------------------------|
   sorry                     The fault must       be   mine

e--------------1-3-3/5--5------3------------------3------1-------------|
B--------3-------------------------------------------------------------|
G-----2-----2----------------------------------------------------------|
D--0-------------------------------------------------------------------|
A-------------------------3--3---3--3--3--3--3--0h1-1--1---1--1--1--1--|
E----------------------------------------------------------------------|
            I wish you  all the                 best   of

e------------------------------------0-1----------1-3-3/5-5---------3----------|
B--3------1----------------------1-3---------3---------------------------------|
G---------------------------3--------------2---2-------------------------------|
D-------------------------0--------------0-------------------------------------|
A-----------------------------------------------------------3--3--3---3--3--3--|
E----1--1---1--1--1--2--3-----3------------------------------------------------|
  luck  at                      finding        somebody  more      like

e--1------------------------------------------------|
B---------------------------------------------------|
G---------------------------------------------------|
D------------------------------------------------2--|
A---------------------------------------------------|
E----1--1--1--1--1--1--1--1--1--1--1--1--1--1--1----|
   you


Verse 2: (mute these chords)
Dm5            C5      Bb5     F5
You said you'd love me always, truly
G5 D5        C#m
I must have changed
D5              C5      Bb5       F5
Cause you don't need me like you used to
G5         D5            C5        F (bass note only)
I hope you find somebody more like you


Chorus:
C                       Bb
I hope you finally find someone
                 F
Someone that you trust
                  C
And give him everything
                             Gm
I hope you meet someone your height
                      Bb
So you can see eye-to-eye
     F          A7*
With someone as small as you


(Play Verse 2 chords)


Verse 3:
e--------------1-3-3/5--5------3------------------3------1-------------|
B--------3-------------------------------------------------------------|
G-----2-----2----------------------------------------------------------|
D--0-------------------------------------------------------------------|
A-------------------------3--3---3--3--3--3--3--0h1-1--1---1--1--1--1--|
E----------------------------------------------------------------------|
            You came out of nowhere,             made me 

e------------------------------------0-1----------1-3-3/5-5---------0----------|
B--3------1----------------------1-3---------3---------------------------------|
G---------------------------3--------------2---2-------------------------------|
D-------------------------0--------------0-------------------------------------|
A-----------------------------------------------------------4--4--4---4--4--4--|
E----1--1---1--1--1--2--3-----3------------------------------------------------|
   smile                        Then    tore      me in    two

e--------------1-3-3/5--5------3------------------3------1-------------|
B--------3-------------------------------------------------------------|
G-----2-----2----------------------------------------------------------|
D--0-------------------------------------------------------------------|
A-------------------------3--3---3--3--3--3--3--0h1-1--1---1--1--1--1--|
E----------------------------------------------------------------------|
     Saying, "We're very different              people"     

e------------------------------------0-1----------1-3-3/5-5---------3----------|
B--3------1----------------------1-3---------3---------------------------------|
G---------------------------3--------------2---2-------------------------------|
D-------------------------0--------------0-------------------------------------|
A-----------------------------------------------------------3--3--3---3--3--3--|
E----1--1---1--1--1--2--3-----3------------------------------------------------|
  So    dear,                   I hope you find   somebody more    like 

e---------------0-1----------1-3-3/5-5---------3----------1----|
B-----------1-3---------3--------------------------------------|
G------3--------------2---2------------------------------------|
D----0--------------0------------------------------------------|
A--------------------------------------3--3--3---3--3--3-------|
E--3-----3-----------------------------------------------------|
   you     I hope you find somebody more      like       you
            
Submit corrections


        Somebody More Like You lessons Hard to play? Try these video lessons and learn fast Somebody More Like You lessons
        
↑ Back to top | Tablatures and chords for acoustic guitar and electric guitar, ukulele, drums are parodies/interpretations of the original songs. You may use it for private study, scholarship, research or language learning purposes only