» » »

Nickel Creek - Reason Why Tabs

Artists:  A B C D E F G H I J K L M N O P Q R S T U V W X Y Z # 

Reason Why Tabs

(ver. 3) Click to play this song!
Nickel Creek
 Rating:
4/5 (4 votes)

 Reason Why lessons Tabs too difficult? Try these video lessons and learn fast
 
                (1)
REASONS WHY
---------------------------------------------------------
NOTE: capo on fret 1
---------------------------------------------------------
chords:
  Em  D   C   A   G   A7
e-0---0---0---0---3---3------
B-0---3---1---2---3---2------
G-0---2---0---2---0---2------
D-2---0---2---2---0---2------
A-2---x---3---0---2---0------
E-0---x---x---0---3---0------
----------------------------------------------------------
Intro : |Em D|C D|Em D|A C D|

Verse 1:
Em                   D           C     D
Where am I today?  I wish that I knew,
       Em                     D          A    C  D
'Cause looking around there's no sign of you.
Em                   D           C     D
I don't remember one jump or one leap,  
     Em           D             A       C  (D)
Just quiet steps away from your lead.

Verse 2:
I'm holding my heart out but clutching it too,  
Feeling this sort of a love that we once knew.  
I'm calling this home when it's not even close,  
Playing the role with nerves left exposed.

Chorus 1:
D             C        G      D                     C      G
Standing on a darkened stage, stumbling through the lines.
A7            D          Em        G  C    D 
Others have excuses, but I have my reasons why.

Solo:
|Em D|C D|Em D|A C D|

Verse 3:
We get distracted by dreams of our own,  
But nobody's happy while feeling alone,
And knowing how hard it hurts when we fall,
We lean another ladder against the wrong wall.  

Chorus 2:
    D                 C       G        D                  C
And climb high to the highest rung, to shake fists at the sky.
                             Em      G  C    D 
While others have excuses, I have my reasons why.

Bridge:
               D            C           Em      D
With so much deception it's hard not to wander away,  
     C           Em      D
It's hard not to wander away,


solo:
e|-----------------------------------------------12-----12-10--------------------------------------|
B|3-5--5-3-0---0-3-3-7-8---8-------10--12-10-8--/-----------12-10-8-10-12-8-10-8-------------------|
G|-----------2-------------------7-------------9---------------------------------9-9-7/9-7---------|
D|-----------------------------------------------------------------------------------------9-7-----|
A|---------------------------------------------------------------------------------------------10-7|
E|-------------------------------------------------------------------------------------------------|

e|----------------------------------3/7-5-3---------------------------|
B|------------------------------3-5---------5-3/5-3-5-0---------------|
G|--------------------------0-2-------------------------2-/4-/4-2-0---|
D|----4-5-7/9/7-------0-2-4-----------------------------------------2-|
A|5-7-----------5/7/5-------------------------------------------------|
E|--------------------------------------------------------------------|


Intro
Verse 1
Verse 2
Chorus 1
solo
Verse 3
Chorus 2
Bridge
Intro (play continuously and fade)
            
Submit corrections


        Reason Why lessons Hard to play? Try these video lessons and learn fast Reason Why lessons
        
↑ Back to top | Tablatures and chords for acoustic guitar and electric guitar, ukulele, drums are parodies/interpretations of the original songs. You may use it for private study, scholarship, research or language learning purposes only