» » »

Nickel Creek - Reason Why Tabs

Artists:  A B C D E F G H I J K L M N O P Q R S T U V W X Y Z # 

Reason Why Tabs

(ver. 2) Click to play this song!
Nickel Creek
 Rating:
4/5 (4 votes)

 Reason Why lessons Tabs too difficult? Try these video lessons and learn fast
 
                GUITAR SOLO FOR REASONS WHY
By Nickel Creek


E|-3h5---5--3--0---------0-----0-----------------------------------------------
B|-----------------------3-----3-----7--8-----8-----8---------10-----10-/-12---
G|----------------2-/-4-----4-----4--------5-----5-----5-/-7------7------------
D|-----------------------------------------------------------------------------
A|-----------------------------------------------------------------------------
E|-----------------------------------------------------------------------------


E|-----------/-12--10--12--10-----------------------------------------0--------
B|-10--8-----------------------12-\-10--8--10-/-12-\-10--8--10--8--------------
G|--------9--------------------------------------------------------9--9--------
D|-----------------------------------------------------------------------------
A|-----------------------------------------------------------------------------
E|-----------------------------------------------------------------------------


E|-0------0--0------0----------------------------------------------------------
B|-----------------------------------------------------------------------------
G|-7-/-9--7------------------------------------------------------------0--2----
D|-----------8-/-9--7----------------4--5--7--9---------------0--2--4----------
A|---------------------10--7---5--7--------------3---5--7--5-------------------
E|-----------------------------------------------------------------------------


E|-------------3--5-/-7--5--3------------------------------0---------0---------
B|-0h3--3-/-5------------------5---3--5--3-------------------------------------
G|------------------------------------------4-\-2--0--2----2-/-4--2--2-/-4-\-2-
D|-----------------------------------------------------------------------------
A|-----------------------------------------------------------------------------
E|-----------------------------------------------------------------------------


E|--0--------------------------|
B|-----------------------------|
G|--2-/-4--4-\-2--0------------|
D|-------------------2--0--2---|
A|-----------------------------|
E|-----------------------------|
            
Submit corrections


        Reason Why lessons Hard to play? Try these video lessons and learn fast Reason Why lessons
        
↑ Back to top | Tablatures and chords for acoustic guitar and electric guitar, ukulele, drums are parodies/interpretations of the original songs. You may use it for private study, scholarship, research or language learning purposes only