» » »

Nickel Creek - Raining At Sunset Tabs

Artists:  A B C D E F G H I J K L M N O P Q R S T U V W X Y Z # 

Raining At Sunset Tabs

(ver. 2) Click to play this song!
Nickel Creek
 Rating:
4/5 (4 votes)

 Raining At Sunset lessons Tabs too difficult? Try these video lessons and learn fast
 
                This one is REALLY COOL! (I dont have the whole thing here though)

Intro (only if playing solo)
E|--------0-----0|--0-----0------|--------0-----0|
A|----0-0---0-0--|0---0-0---0-0-0|----0-0---0-0--|
D|6\7------------|---------------|6\7------------|
G|---------------|---------------|---------------|

E|--0-----0------|--------0-----0|--0-----0------|
A|0---0-0---0-0-0|----0-0---0-0--|0---0-0---0-0-0|
D|---------------|6\7------------|---------------|
G|---------------|---------------|---------------|
                h
E|--------0---0-12|---------------|   end of intro
A|----0-0---0---12|---------------|
D|6\7-------------|---------------|
G|----------------|---------------|

Secton 1 (do this 2x)
E|----0----------|--0---------0--|----0----------|
A|2-4---4-2-0---0|----0-0-------0|--0---0--------|
D|------------6--|--------6\7----|7-------6-4-2-4|
G|---------------|---------------|---------------|
                                        |1st ending-----|
E|--0------------|--0----|-------0-----0|--0-----0-----0|
A|0--------------|0------|----0-0--0-0--|0---0-0---0-0--|
D|----0-2-4-2-0-2|----6-2|6\7-----------|---------------|
G|---------------|-------|--------------|---------------|
 |2nd ending-----|
E|--0---------0-2|
A|0---0-2-4-5----|
D|---------------|
G|---------------|

Section 2 (do this 2x)
E|----2-4-5-4-2-0|----0-2|----2-4-5-4-2-0|----0-2-----0--|
A|--0------------|--5----|--0------------|--5-------0---0|
D|0--------------|6------|0--------------|6-------4------|
G|---------------|-------|---------------|---------------|

E|----0----------|--0---------0--|------0--------|
A|------4-2-0---0|----0-0-------0|0-2-4---2-0---0|
D|4\7---------6--|--------6\7----|------------6--|
G|---------------|---------------|---------------|

E|--0---------0-2|
A|----0-2-4-5----|
D|---------------|
G|---------------|

Section 3 
E|----2-4-5-4-2-0|----0-2|----2-4-5-4-2-0|
A|--0------------|--5----|--0------------|----7-7-----6-6|
D|0--------------|6------|0--------------|--6-------4----|
G|---------------|-------|---------------|6-------4------|

E|---------------|------3-2------|-----0------|
A|----4-5---4---2|----2-----5-0--|-------0----|
D|--2-----2---2--|--0-----------4|---------6-2|
G|2--------------|0--------------|0-----------|   
                                                 (hold) 
E|--------0-2---0|--------2-4---2|------5---9----|10|
A|------0--------|------0--------|----0----------|--|
D|0--------------|0--------------|0--------------|--|
G|---------------|---------------|---------------|--|
            
Submit corrections


        Raining At Sunset lessons Hard to play? Try these video lessons and learn fast Raining At Sunset lessons
        
↑ Back to top | Tablatures and chords for acoustic guitar and electric guitar, ukulele, drums are parodies/interpretations of the original songs. You may use it for private study, scholarship, research or language learning purposes only