» » »

Nickel Creek - Raining At Sunset Tabs

Artists:  A B C D E F G H I J K L M N O P Q R S T U V W X Y Z # 

Raining At Sunset Tabs

(ver. 1) Click to play this song!
Nickel Creek
 Rating:
4/5 (4 votes)

 Raining At Sunset lessons Tabs too difficult? Try these video lessons and learn fast
 
                 |       |       |       |        |       |       |       |        
|0---0---------------0-----------|--------0-----------0-----------|
|--------2h--4---4-------2---0---|----0-----------0-----------0---|
|--------------------------------|6-----------6-----------7-------|
|--------------------------------|--------------------------------|

 |       |       |       |        |       |       |       |        
|0-------------------0-----------|----------------0---------------|
|----------------0---------------|------------0-------------------|
|----2h--4---6-----------6---4---|2---2h--4-----------2---2h--4---|
|--------------------------------|--------------------------------|

 |       |       |       |        |       |       |       |        
|--------------------0-----------|------------------------0-------|
|0---------------0---------------|--------------------0-----------|
|----6---4---0-----------0---2---|2h--4---2---0---2-----------6---|
|--------------------------------|--------------------------------|

 |       |       |       |        |       |       |       |        
|--------------------------------|0-----------0-----------0-------|
|--------------------------------|--------0-----------0-----------|
|2---6/--7-----------------------|----7-----------7---------------|
|--------------------------------|--------------------------------|
            
Submit corrections


        Raining At Sunset lessons Hard to play? Try these video lessons and learn fast Raining At Sunset lessons
        
↑ Back to top | Tablatures and chords for acoustic guitar and electric guitar, ukulele, drums are parodies/interpretations of the original songs. You may use it for private study, scholarship, research or language learning purposes only