Home » N » Nickel Creek »

Nickel Creek - Brand New Sidewalk Tabs

Artists:  A B C D E F G H I J K L M N O P Q R S T U V W X Y Z # 

Brand New Sidewalk Tabs

(ver. 2) Click to play this song!
Nickel Creek
 Rating:
4/5 (4 votes)
                #------------------------------------------------------------------------------##

IXOYE


Intro:
|-----2-3-5---3---|-2---7-5-2---0---|-----2-0---------|-------------2-|
|---0-------0---0-|---0-------0---0-|-3-------3---2---|-0---2-3-5-----|
|-4-------2-------|-0---------------|---0-------0---0-|---0-------4---|
|-----------------|---------4-------|-2-------0-------|-2-------------|
|-----------------|-----------------|-----------------|---------------|
|-----------------|-----------------|-----------------|---------------|


|-3-2---2-3-5---3---|-2-9-7-5-2---0---|---2h3p2-0---------|------|
|-----0---0---0---0-|-----------0---0-|-3---------3-----2-|-0----|
|---4-------2-------|-0---------------|-------------1-3---|------|
|-------------------|---------4-------|-2---------0-----2-|-0----|
|-------------------|-----------------|-------------------|------|
|-------------------|-----------------|-------------------|------|


Verse 1:
Note that the open B string is the same note as the 4th fret of the G string
You can interchange these notes to make it sound more correct.  
Listen to the song, you'll see what I am talking about.

|-----------------|-----------------|-----------------|-----------------|
|---0-0-0---0-0-0-|---0-0-0---0-0-0-|---0-0-0---0---0-|---0-0-0---------|
|-4-------2-------|-0---------------|---------4-------|-----------4-3-4-|
|-----------------|---------4-------|-2-----------2---|-4-------4-------|
|-----------------|-----------------|-----------------|-----------------|
|-----------------|-----------------|-----------------|-----------------|


|-----2-------2---|-----2-----2---|-----------0-----|-----------0-----|
|---0---0---0---0-|---0---0-------|-0-----2-----2---|-2-----1-----1---|
|-4-------4-------|-0-------0-----|-----4---4-----4-|-----4---4-----4-|
|-----------------|---------------|-----------------|-----------------|
|-----------------|---------------|---4-------------|---3-------------|
|-----------------|---------------|-----------------|-----------------|


|-----------------|-----------------|-----------------|-----------------|
|---0---0---0---0-|---0---0---0---0-|---0---0---0---0-|---0---0---------|
|-----4-----------|-----------------|-----4-------4---|-----4-----4-3-4-|
|-------------4---|-----4-------4---|-----------------|-----------------|
|-2-------0-------|-----------------|-----------------|-----------------|
|-----------------|-3-------2-------|-0-------0-------|-2-------2-------|


|-----------------|-----------------|---------0-------|---------0------|
|-------0-------0-|-------0---0---0-|-----2-----2---2-|-----2-----2----|
|-----4-----4-----|-----4---4---4---|---4---4-----4---|---4---4-----4--|
|---4-------------|---0-------------|-2---------------|----------------|
|-2-------2---2---|-----------------|-----------------|-0--------------|
|-----------------|-3---------------|-----------------|----------------|


Chorus:
|---------2-------|---------2------|---------0-------|---------------|
|-----3-----3---3-|---------2------|---------0-------|---------0--2--|
|---2---2-----2---|-------3----3---|-----------------|-----0-2-------|
|-0---------------|-----4--------4-|-----6-----6---6-|---0-----------|
|-----------------|---4------------|---7---7-----7---|---------------|
|-----------------|-2--------------|-4---------------|-3-------------|


|---------2-------|---------2-------|---------0-------|---------------0-|
|-3-----3---3---3-|---------2-------|---------0-------|---------0-2-3---|
|---2---------2---|-------3---3---3-|-----------------|-----0-2---------|
|-0---0-----------|-----4-------4---|-----6-----6---6-|---0-------------|
|-----------------|---4-------------|---7---7-----7---|-----------------|
|-----------------|-2---------------|-4---------------|-3---------------|


|-2-------2-------|-----2------|-----------------|-----------------|
|-----3-----3---3-|-----2------|---------0-------|-----------------|
|---2---2-----2---|-----3------|-----------------|-----0-2-4-2-0---|
|-0---------------|-----4------|-----6-----6---6-|---0-----------4-|
|-----------------|---4--------|---7---7-----7---|-----------------|
|-----------------|-2----------|-4---------------|-3---------------|


|---------0---2--|-0-------0-----0-|---------0-----|------|
|-----3----------|-----0-------0---|---------------|------|
|---2---2---2----|---1---1---1-----|-----3------3--|------|
|-0--------------|-2---------------|---------------|-4----|
|----------------|-----------------|---4---4-------|------|
|----------------|-----------------|-2-------------|------|

Verse 2:
|-----------------|-----------------|-----------------|----------------|
|---0---0---0---0-|---0---0---0---0-|-----0---0---0---|---0---0---0----|
|-4---4-----------|-----------------|-------4---4---4-|-----4-------3--|
|-------------4---|-----4-------4---|---4-------------|----------------|
|-2-------0-------|-----------------|-----------------|----------------|
|-----------------|-3-------2-------|-0---------------|-2-------2------|


|-----------------|-----------------|-----------------|-----------------|
|-------0-------0-|-----------------|-------5---------|-------5---------|
|-----4-------4---|-----0-2-4-2-0---|-----4---------4-|-----5---------3-|
|---4-------4-----|---0-----------0-|---6---------5---|---5---------4---|
|-2-------2-------|-----------------|-4---------5-----|-3---------4-----|
|-----------------|-3---------------|---------3-------|---------2-------|


|-----------------|-----------------|---------------|----------------|
|---0---0---0---0-|---0---0---0---0-|-----0-2--3--0-|---0---0---0----|
|-4---4-----------|-----------------|---------------|-----4-------3--|
|-------------4---|-----4-------4---|---4-----------|----------------|
|-2-------0-------|-----------------|---------------|----------------|
|-----------------|-3-------2-------|-0-------------|-2-------2------|


|-----------------|---------------0-|-------------|-----------------|
|-------0-------0-|---------0-2-3---|-------6-----|---------5-------|
|-----4-------4---|-----0-2---------|-----4-------|-----4-----4---4-|
|---4-------4-----|---0-------------|---6---------|---6---6-----6---|
|-2-------2-------|-----------------|-4-----------|-4---------------|
|-----------------|-3---------------|-------------|-----------------|


Song Order:
Intro
Verse 1
Chorus
Intro
Verse 2
Chorus
Intro
Verse 1 (with some slight variation)
Chorus
Intro   (isn't that wedding bell awesome)


IXOYE

            
Submit corrections

↑ Back to top | Tablatures and chords for acoustic guitar and electric guitar, ukulele, drums are parodies/interpretations of the original songs. You may use it for private study, scholarship, research or language learning purposes only