» » »

Nickel Creek - Brand New Sidewalk Tabs

Artists:  A B C D E F G H I J K L M N O P Q R S T U V W X Y Z # 

Brand New Sidewalk Tabs

(ver. 1) Click to play this song!
Nickel Creek
 Rating:
4/5 (4 votes)

 Brand New Sidewalk lessons Tabs too difficult? Try these video lessons and learn fast
 
                I don't think this matches the cd exACTLY but I picked up on the main tune and added some 
stuff to make it sound full. I hope this helps!


e---2-----2--3--5----3-----2-----7--5--2----0-
b------0-----------0----0-----0-----------0---0
g----------------------------------------------
d----------------------------------------------
a---2-----------0----------2-----------2-------
e----------------------------------------------

1st ending:
e-------2--0-------------------------0--
b---3--------3---2----0---0--2--3------0
g-----0--------0---0----2----------2----
d---------------------------------------
a---------------------------------------
e---3--------3--------0---------3-------

2nd ending:
e-------2--0-------------
b---3---------3---2---0--
g-----0---------0---0----
a-----------------0---2--
e---3---------3----------
            
Submit corrections


        Brand New Sidewalk lessons Hard to play? Try these video lessons and learn fast Brand New Sidewalk lessons
        
↑ Back to top | Tablatures and chords for acoustic guitar and electric guitar, ukulele, drums are parodies/interpretations of the original songs. You may use it for private study, scholarship, research or language learning purposes only