» » »

Nickelback - Just To Get High Tabs

Artists:  A B C D E F G H I J K L M N O P Q R S T U V W X Y Z # 

Just To Get High Tabs

(ver. 1) Click to play this song!
Nickelback
 Rating:
4/5 (4 votes)

 Just To Get High lessons Tabs too difficult? Try these video lessons and learn fast
 
                Here is just to get high.  it seems pretty accurate, but i didnt mark the 
strumming parts for some parts
of the song so you'll have to figure that out for yourself.  Also, i dont have the solo 
i just improvise
something close to it because its to much work to get it note for note and tab it out.  
is a great nickelback
song off Dark Horse.  please rate :)

tuning: drop D

Intro

E|-------------------------|-------------------------|----------------|
B|-------------------------|-------------------------|----------------|
G|-------------------------|-------------------------|-----5---7------|
D|-----------------7---7---|-----------------7---7---|----------------|
A|-----7-----8-----------8-|-----7-----8-----------8-|----------------|
D|-0-0---0-0---0-0---0-----|-5-5---5-5---5-5---5-----|-8-8---8---8----|

E|----------------|---------------------------|
B|----------------|---------------------------|
G|----------------|------7---5----------------|
D|-------5---7----|-------------------7-------|  x3
A|----------------|--3-3---3---3----------8---|
D|---3-3---3---3--|---------------5-5---5---5-|


Pre chorus
Guitar1

’But I can still remember what...’ (0:42)
E|---------------------------------------------|
B|---------------------------------------------|
G|-----5-----------------5--------5-strum-this-|
D|---------7--8-7----------5---5--5-until-the--|
A|--------------------------------3—quiet-part-|
D|-8-8------------8--3-3-----3-----------------|

Guitar 2

E|---------------------------------|-----------------|-----------------|
B|---------------------------------|-6-6-6-6-6-6-6-6-|-----------------|
G|-3-3-3-3-3-3-3-3-3-3-3-3-3-3-3-3-|-5-5-5-5-5-5-5-5-|-5-5-5-5-5-5-5-5-|
D|-3-3-3-3-3-3-3-3-3-3-3-3-3-3-3-3-|-3-3-3-3-3-3-3-3-|-5-5-5-5-5-5-5-5-|
A|-1-1-1-1-1-1-1-1-1-1-1-1-1-1-1-1-|-3-3-3-3-3-3-3-3-|-3-3-3-3-3-3-3-3-|
D|---------------------------------|-3-3-3-3-3-3-3-3-|-----------------|
  pm  pm  pm  pm  pm  pm  pm  pm     pm  pm  pm  pm    pm


Tell me what you know, tell me what you gone and done now


Chorus

‘Tell me what you know, tell me…’ (0:51)
E|----------------------------------------|
B|-----------3------8----------------8----|
G|-----------2------7------3----5----7----|
D|-----------0------5------3----5----5----|
A|-----------0------5------1----3----5----|
D|----15\----0------5----------------5----|


Repeat intro

Repeat Pre chorus


Chorus
'Tell me what you know...' (1:45)
E|--------------------------------|
B|-------3----8--------------8----|
G|-------2----7----3----5----7----|
D|-------0----5----3----5----5----|  x2
A|-------0----5----1----3----5----|
D|-15\---0----5--------------5----|

After your second time doing the chorus, go right in to this (2:13)

   igh... igh... igh... high... igh ...igh
E|----------------------------------------------|
B|-------6-----8-8-8-8-8-8-8-8------------------|
G|--3----5-----7-7-7-7-7-7-7-7------------------|
D|--3----3-----5-5-5-5-5-5-5-5------------------|
A|--1----3-----5-5-5-5-5-5-5-5------------------|
D|-------3-----5-5-5-5-5-5-5-5------------------|
               pm  pm  pm  pm

Solo rhythm (Same as Chorus)

E|--------------------------------|
B|-------3----8--------------8----|
G|-------2----7----3----5----7----|
D|-------0----5----3----5----5----|
A|-------0----5----1----3----5----|
D|-------0----5--------------5----|


Repeat intro

Repeat chorus


Tell me what you did, where you gone and hid...


Lick at the end of the song (3:44 – 4:00)

E|--15p13--15p13----15p13----15p13-15p13----15p13-----|
B|---------------15-------15-------------15-------15--|
G|----------------------------------------------------|
D|----------------------------------------------------| x2
A|----------------------------------------------------|
D|----------------------------------------------------|

E|--17p13--17p13----17p13----17p13-17p13----17p13-----|
B|---------------15-------15-------------15-------15--|
G|----------------------------------------------------|
D|----------------------------------------------------| x2
A|----------------------------------------------------|
D|----------------------------------------------------|

E|----------------|----15p13-15p13----17p13-x4--------|
B|----------------|-15-------------15------------10\--|
G|--------14-17---|------------------------------10\--|
D|-----15---------|-----------------------------------|
A|--17------------|-----------------------------------|
D|----------------|-----------------------------------|
            
Submit corrections


        Just To Get High lessons Hard to play? Try these video lessons and learn fast Just To Get High lessons
        
↑ Back to top | Tablatures and chords for acoustic guitar and electric guitar, ukulele, drums are parodies/interpretations of the original songs. You may use it for private study, scholarship, research or language learning purposes only