» » »

Nickelback - Hollywood Tabs

Artists:  A B C D E F G H I J K L M N O P Q R S T U V W X Y Z # 

Hollywood Tabs

(ver. 2) Click to play this song!
Nickelback
 Rating:
4/5 (4 votes)

 Hollywood lessons Tabs too difficult? Try these video lessons and learn fast
 
                                                 Nickelback - Hollywood
Standard Tuning - E, A, D, G, B, E

Main Riff
------------------------------------------------------
------------------------------------------------------
------------------------------------------------------
---10--8-----10--8----------10--8---------------------
---10--8-----10--8--x-x-----10--8---------1-----1-----
---8b--6-----8b--6--x-x-----8b--6---1h3p1---3p1---3---

Solo Riff - Something like this...
---------------------------|---8b--6~~~-----8b--6~~~--
---------------------------|--------------------------
---9b--7~~~-----9b--7~~~---|--------------------------
---------------------------|--------------------------
---------------------------|--------------------------
---------------------------|--------------------------
            
Submit corrections


        Hollywood lessons Hard to play? Try these video lessons and learn fast Hollywood lessons
        
↑ Back to top | Tablatures and chords for acoustic guitar and electric guitar, ukulele, drums are parodies/interpretations of the original songs. You may use it for private study, scholarship, research or language learning purposes only