Home » N » Nickelback »

Nickelback - Hero Tabs

Artists:  A B C D E F G H I J K L M N O P Q R S T U V W X Y Z # 

Hero Tabs

(ver. 3) Click to play this song!
Nickelback
 Rating:
4/5 (4 votes)
                

This tab is all my own work, so please inform me before
you decide to steal it and take credit for it.  Thanks.

TUNED DOWN 1/2 STEP


CHORDS:
-------
    Am      A2       F      G#      A#       C
eb|--0--| |--0--| |--1--| |--4--| |--6--| |--8---|
Bb|--1--| |--0--| |--1--| |--4--| |--6--| |--8---|
Gb|--2--| |--2--| |--1--| |--4--| |--6--| |--8---|
Db|--2--| |--2--| |--3--| |--6--| |--8--| |--10--|
Ab|--0--| |--0--| |--3--| |--6--| |--8--| |--10--|
Eb|--x--| |--x--| |--1--| |--4--| |--6--| |--8---|


VERSE:
------
Am A2        Am  A2          F          
   I am so high, I can hear heaven
Am A2        Am  A2          F          
   I am so high, I can hear heaven
           G#         A#                C    
   Oh, But heaven, no heaven don't hear me


CHORUS:
-------
                     G#
And they say that a hero can save us
     A#                       C
I'm not gonna stand here and wait
                      G#
We'll hold on to the wings of the eagles
      A#                  C
And watch as we all fly away


VERSE:
------

Am A2             Am A2              F
    Someone told me love would only save us
Am A2             Am  A2                F      
    But how can that be? Look what love gave us
                    G#                A#
    A world full of killing and blood spilling
                     C        
    That we'll never change


CHORUS
------


SOLO:
-----

eb|---------------------------------------------------------------------|
Bb|---------------------------------------------------------------------|
Gb|---------------------------------------------------------------------|
Db|---------------------------------------------------------------------|
Ab|-6p5-6p5-6p5---6p5-6p5-6p5---------10p8-10p8-10p8-6--10p8-10p8-10p8--| 
Eb|-------------6-------------8--8-10-----------------------------------|

eb|----------------------------------------|
Bb|----------------------------------------|
Gb|----------------------------------------|
Db|----------------------------------------|
Ab|-10p8-10p8-10p8-6--10p8-10p8-10p8-------|
Eb|----------------------------------10-8--|


BRIDGE:
-------
              G#                    A#                      C
Now that the world is ending, it's love that I'm sending to you
             G#                  A#                        C
It's in the love of a hero, and that's why I fear it won't do


CHORUS
------


END:
----
End on C chord.



--------------------------------------------
---------------------------------------------
            
Submit corrections

↑ Back to top | Tablatures and chords for acoustic guitar and electric guitar, ukulele, drums are parodies/interpretations of the original songs. You may use it for private study, scholarship, research or language learning purposes only