» » »

Nickelback - Gotta Be Somebody Tabs

Artists:  A B C D E F G H I J K L M N O P Q R S T U V W X Y Z # 

Gotta Be Somebody Tabs

(ver. 1) Click to play this song!
Nickelback
 Rating:
4/5 (4 votes)

 Gotta Be Somebody lessons Tabs too difficult? Try these video lessons and learn fast
 
                -------------------------------------------------------------------------------
-------------------------------------------------------------------------------
just to let yous know i bugged up the counting on how many strums for each power chord
just listen to the song and ull get it.

Tuning:Standard.
  Intro.. this time i wonder what it feels like to find the one in this life the one we
dream of the dream so turn it up so ill be waiting for the . just to let you's now at
start of the song were it has the flager and stuff u can just palm mute the same as the 
thanks  ... this tab is 100% correct
e|-------------------------------------------------------------------|
B|-------------------------------------------------------------------|
G|-------------------------------------------------------------------|
D|------------------5-5-5-5-5-5-5-5\7-7-7-7-7-7-7-7\3-3-3-3-3-3-3-3--|
A|---3-3-3-3-3-3-3-3-------------------------------------------------|
E|-------------------------------------------------------------------|

  Verses . chorus and bridge... real thing
e|-----------------------------------------------------------------|
B|-----------------------------------------------------------------|
G|----------------7-7-7-7-7-7-7-7/9-9-9-9-9-9-9-9\5-5-5-5-5-5-5-5--|
D|--5-5-5-5-5-5-5-5-5-5-5-5-5-5-5/7-7-7-7-7-7-7-7\3-3-3-3-3-3-3-3--|
A|--3-3-3-3-3-3-3--------------------------------------------------|
E|-----------------------------------------------------------------|

 Pre chorus.. so ill be holding my breath
e|---------------------------------------------------|
B|---------------------------------------------------|
G|------------------5-5-5-5-5-5-5-5-7-7-7-7-7-7-7-7--|
D|--7-7-7-7-7-7-7-7-3-3-3-3-3-3-3-3-5-5-5-5-5-5-5-5--|
A|--5-5-5-5-5-5-5-5----------------------------------|
E|---------------------------------------------------|

thanks very much for using my tab if u have any complaints or questions feel free not to 
thanks

| /  slide up
| \  slide down
| h  hammer-on
| p  pull-off
| ~  vibrato
| +  harmonic
| x  Mute note
===============================================================================
            
Submit corrections


        Gotta Be Somebody lessons Hard to play? Try these video lessons and learn fast Gotta Be Somebody lessons
        
↑ Back to top | Tablatures and chords for acoustic guitar and electric guitar, ukulele, drums are parodies/interpretations of the original songs. You may use it for private study, scholarship, research or language learning purposes only