» » »

Nickelback - Follow You Home Tabs

Artists:  A B C D E F G H I J K L M N O P Q R S T U V W X Y Z # 

Follow You Home Tabs

(ver. 2) Click to play this song!
Nickelback
 Rating:
4/5 (4 votes)

 Follow You Home lessons Tabs too difficult? Try these video lessons and learn fast
 
                Follow You Home – Nickelback

Drop C

Into/verse (on verse palm mute)
d------------------------------------------------------|
a------------------------------------------------------|
f------------------------------------------------------|
c-7-5-7-5-7-10-7-5-7-0-12h10-10-7-5-7-3-10h12----------|
g-7-5-7-5-7-10-7-5-7-0-12h10-10-7-5-7-3-10h12----------|
C-7-5-7 5-7-10-7-5-7-0-12h10-10-7-5-7-3-10h12----------| x2


solo after intro
d-----------------------------------------------------------------|
a-------------------------5s8s10s13s15s17-15h17p15---15h17p15-----|
f-2-5-2-0-2-5-2-0-2-5-2-5-------------------------14---------14b--|
c-----------------------------------------------------------------|
g-----------------------------------------------------------------|
C-----------------------------------------------------------------|

pre chorus

d----------------------------------------------------------------------|
a----------------------------------------------------------------------|
f----------------------------------------------------------------------|
c-3-----5-3-5-0----5-0----7-5-7-0-12h10--------------------------------|
g-3-----5-3-5-0----5-0----7-5-7-0-12h10--------------------------------|
C-3-x14-5-3-5-0-x5-5-0-x5-7-5-7-0-12h10--------------------------------|

d----------------------------------------|
a----------------------------------------|
f----------------------------------------|
c--7-5-7-3-10h12-3-x14-5-3-5-0-x5-5-0x5--|
g--7-5-7-3-10h12-3-x14-5-3-5-0-x5-5-0x5--|
C--7-5-7-3-10h12-3-x14-5-3-5-0-x5-5-0x5--|


chorus

d----------------------------------------------------------|
a----------------------------------------------------------|
f----------------------------------------------------------|
c-7-0-3h5-3-0-3-0-3h5-5-5-5-5-7-0-12h10-10-7-5-7-3-10h12---|
g-7-0-3h5-3-0-3-0-3h5-5-5-5-5-7-0-12h10-10-7-5-7-3-10h12---|
C-7-0-3h5-3-0-3-0-3h5-5-5-5-5-7-0-12h10-10-7-5-7-3-10h12—--|

picking part of chorus
d--------------------------------------------|
a-7-9-2-5-7-5-7-5-2--------------------------|
f--------------------------------------------|
c--------------------------------------------|
g--------------------------------------------|
C--------------------------------------------| x4

2nd solo

d------------------------------|
a------------------------------|
f-12h14p12---------------------|
c---------14-------------------|
g------------------------------|
C------------------------------| x4

d-------------------------------------------------------------|
a-------------------------------------------------------------|
f---12-14-14-14-12-14-17-14-12-14-12--------------------------|
c-14--------------------------------14-12-10-12-10h12h14-10-7-|
g-------------------------------------------------------------|
C-------------------------------------------------------------|

verse

pre-chorus

chorus

3rd solo
d--------------------------------------------------|
a--------------------------------------------------|
f--------------------------------7h9-7h9-7h9-------|
c--7-7--------------7--------7------7---7----------|
g-0---0-3-0-3-0-3h5---5-3-5-0---0------------0-3-5-|
C--------------------------------------------------|

d--------------------------------------------------------------|
a--------------------------------------------------------------|
f--5h7p5-7h9-7-9-7-9s12-12-9-7h9p7—5-7p5-----------------------|
c—7-------------------------------7-----7-5---5-7-7-5----------|
g------------------------------------------5h7-------7-5h7p5-0-|
C--------------------------------------------------------------|

d----------------------------------------------------------------------|
a----------------------------------------------------------------------|
f-----------------7-9-7s14-14-14-14--------------7-5-------------------|
c-7-5-7-10-7-5-7-------------------7-5-7-10-7-5-7---7-7s10-7-7-*10-7-7-|
g-7-5-7-10-7-5-7-7-----------------7-5-7-10-7-5-7----------------------|
C-7-5-7-10-7-5-7-------------------7-5-7-10-7-5-7----------------------|

d-----------------------------------------------------------------|
a-----------------------------------------------------------------|
f--------9-12-9-12-16b-5h7-5h7-5h7-5-5----------------------------|
c-10-7-7----------------------------7-7-7-------------------------|
g-----------------------------------------------------------------|
C-----------------------------------------------------------------|

*guitar 2 plays this:
d----------------------------|
a----------------------------|
f----------------------------|
c-7-5-7-10-7-5-7-------------|
g-7-5-7-10-7-5-7-------------|
C-7-5-7-10-7-5-7-------------|

verse

pre-chorus/chorus
            
Submit corrections


        Follow You Home lessons Hard to play? Try these video lessons and learn fast Follow You Home lessons
        
↑ Back to top | Tablatures and chords for acoustic guitar and electric guitar, ukulele, drums are parodies/interpretations of the original songs. You may use it for private study, scholarship, research or language learning purposes only