» » »

Nickelback - Fight For All The Wrong Reasons Tabs

Artists:  A B C D E F G H I J K L M N O P Q R S T U V W X Y Z # 

Fight For All The Wrong Reasons Tabs

(ver. 2) Click to play this song!
Nickelback
 Rating:
4/5 (4 votes)

 Fight For All The Wrong Reasons lessons Tabs too difficult? Try these video lessons and learn fast
 
                My first attempt at tabbing a song.

Tuning: Drop – C (C G C F A D)


Intro - Play 2x
D|-------------------------------------------------------------|
A|-3--------6--------------------------------------------------|
F|-2---x-x--5--------------------------------------------------|
C|-0---x-x--3----------3-------5----10-------------------------|
G|-0---x-x--3--3-5-3-5---5-3---5----10--8-10-8-10brb-8---------|
C|-0---x-x-—3------------------5----10-------------------------|


Verse:
(I'm not sure about this part)
D||--5-5-------8-8---------------5-5----------------------------|
A||------6---6-----5-6-5-6-5-6-8-----6---8-8-5-6-5--------------|
F||--------7---------------------------7-----------7-5-7--------|
C||-------------------------------------------------------------|
G||-------------------------------------------------------------|
C||-------------------------------------------------------------|


Then at the ending:
D|------------------------------------|
A|------------------------------------|
F|------------------------------------|
C|--------------3-5-3--5-7-5-3--------|
G|------------------------------------|
C|------------------------------------|



Right before Chorus
D|-------------------|
A|3-3--3-3-----------|
F|2-2--2-2--5-5--5-5-|
C|0-0--0-0--5-5--5-5-|
G|0-0--0-0--3-3--3-3-|
C|0-0--0-0-----------|



Chorus
D|-------------------------------------------------------------| 4x
A|-3--------6--------------------------------------------------|
F|-2---x-x--5--------------------------------------------------|
C|-0---x-x--3----------3-------5----10-------------------------|
G|-0---x-x--3--3-5-3-5---5-3---5----10--8-10-8-10brb-8---------|
C|-0---x-x-—3------------------5----10-------------------------|


Bridge

D|----------------------| 4x
A|--3-3--3-3------------|
F|--2-2--2-2--5-5--5-5--|
C|--0-0--0-0--5-5--5-5--|
G|--0-0--0-0--3-3--3-3--|
C|--0-0--0-0------------|


D|---------------------------------------------------------|
A|----------3-3--3-3------------3-3--3-3-------------------|
F|----------2-2--2-2--5-5--5-5--2-2--2-2--5-5--5-5---------|
C|----------0-0--0-0--5-5--5-5--0-0--0-0--5-5--5-5---------|
G|----------0-0--0-0--3-3--3-3--0-0--0-0--3-3--3-3---------|
C|-0-0-2-3--0-0--0-0------------0-0--0-0-----------0-0-2-3-|



(this part played 3x)
D|----------------------------------------------------------------------|
A|----------------------------------------------------------------------|
F|----------------------------------------------------------------------|
C|----------------------------------------------------------------------|
G|--------------8-10-----3-5-----10-8-----7-8-----8-10-----3-5-----10-8-|
C|-0-0-2-3--0-0------0-0-----0-0------0-0-----0-0------0-0-----0-0------|



D|-------------------------------------------------|
A|----------3-3--3-3------------3-3--3-3-----------|
F|----------2-2--2-2--5-5--5-5--2-2--2-2--5-5--5-5-|
C|----------0-0--0-0--5-5--5-5--0-0--0-0--5-5--5-5-|
G|----------0-0--0-0--3-3--3-3--0-0--0-0--3-3--3-3-|
C|----------0-0--0-0------------0-0--0-0-----------|
            
Submit corrections


        Fight For All The Wrong Reasons lessons Hard to play? Try these video lessons and learn fast Fight For All The Wrong Reasons lessons
        
↑ Back to top | Tablatures and chords for acoustic guitar and electric guitar, ukulele, drums are parodies/interpretations of the original songs. You may use it for private study, scholarship, research or language learning purposes only