» » »

Nickelback - Breathe Tabs

Artists:  A B C D E F G H I J K L M N O P Q R S T U V W X Y Z # 

Breathe Tabs

(ver. 2) Click to play this song!
Nickelback
 Rating:
4/5 (4 votes)

 Breathe lessons Tabs too difficult? Try these video lessons and learn fast
 
                Tuning: CADGBE


With talk box:

--0-0--3---5----0-0--5--7---0--0--10--12------------------------------------------


Main riff:
------------------------------------------------3h5------------------------------
-------------3-----------------3h5---------------------------------------------------
-------3-3-6------------3--3-----------3---3-------------------------------------


Verse and chorus:

E:----------------------------------------------------------------------------------
B:----------------------------------------------------------------------------------
G:---------5-----------8---------------------10-------------8-------------7---------
D:---------x-----------x---------------------x--------------x-------------x---------
A:---------3-----------6---------------------8--------------6-------------5---------
C:----------------------------------------------------------------------------------

Bridge:( its always been what all of we want to see)

E:-----------------------------------------------------------------------------------
B:-----------------------------------------------------------------------------------
G:------------------------------------------------------------5------------3---------
D:------------------------------------------------------------5------------3---------
A:-----6x--------8--------------------------------------------3------------1---------
C:-----3---------5------------------------------------------------------------------
            
Submit corrections


        Breathe lessons Hard to play? Try these video lessons and learn fast Breathe lessons
        
↑ Back to top | Tablatures and chords for acoustic guitar and electric guitar, ukulele, drums are parodies/interpretations of the original songs. You may use it for private study, scholarship, research or language learning purposes only