Home » N » Nickelback »

Nickelback - Another Hole In The Head Bass

Artists:  A B C D E F G H I J K L M N O P Q R S T U V W X Y Z # 

Another Hole In The Head Bass

(ver. 1) Click to play this song!
Nickelback
 Rating:
4/5 (4 votes)
                Tuning E/A/D/G

Intro
G||--------------------------------||
D||--------------------------------||
A||-000-333-----333-555-333-----333|| x2
E||---------111-------------333----||

Verse
G||---------------------------------||
D||---------------------------------||
A||-00000000--------55555555--------|| x3
E||---------11111111--------33333333||

G||-----------------------||
D||-----------------------||
A||-00000000--------5555-5||
E||---------11111111------||

Chorus
G||--------------------------------||
D||--------------------------------||
A||-000-333-----333-555-333-----333|| x2
E||---------111-------------333----||

Verse 2 
G||---------------------------------||
D||---------------------------------||
A||-00000000--------55555555--------|| x4
E||---------11111111--------33333333||

G||-----------------------||
D||-----------------------||
A||-00000000--------5555-5||
E||---------11111111------||

Chorus 2 
G||--------------------------------||
D||--------------------------------||
A||-000-333-----333-555-333-----333|| x4
E||---------111-------------333----||

Bridge

G||--------------------------------||
D||--------------------------------||
A||-0-0-0-0-3-3-3-3-5-5-5-5--------|| x2
E||-------------------------3-3-3-3||

G||----------------------------------||
D||----------------------------------||
A||-0-0-0-0-3-3-3-3-5-5-5-5---------5||
E||------------------------33333333--||

Verse 3
G||---------------------------------||
D||---------------------------------||
A||-00000000--------55555555--------|| 
E||---------11111111--------33333333||

G||-----------------------||
D||-----------------------||
A||-00000000--------5555-5||
E||---------11111111------||

Chorus 3
G||--------------------------------||
D||--------------------------------||
A||-000-333-----333-555-333-----333|| x3
E||---------111-------------333----||

Outro
G||--------------------------------||
D||--------------------------------||
A||-0-0-0-0-3-3-3-3-5-5-5-5--------|| 
E||-------------------------3-3-3-3||

G||----------------------------------||
D||----------------------------------||
A||-0-0-0-0-3-3-3-3-5-5-5-5---------5|| 
E||-------------------------3-3-3-3--||



Enjoy Playing 
            
Submit corrections

↑ Back to top | Tablatures and chords for acoustic guitar and electric guitar, ukulele, drums are parodies/interpretations of the original songs. You may use it for private study, scholarship, research or language learning purposes only