» » »

Nick Carter - Help Me Tabs

Artists:  A B C D E F G H I J K L M N O P Q R S T U V W X Y Z # 

Help Me Tabs

(ver. 2) Click to play this song!
Nick Carter
 Rating:
4/5 (4 votes)

 Help Me lessons Tabs too difficult? Try these video lessons and learn fast
 
                Intro riff:
E----------------------------------------
B----------------------------------------
G----------------------------------------
D----------------------------------------
A----------5--5-5--5-----------7--7-7--7-
E-2--2-2--------------5--5-5-------------

Verse riff:
E----------------------------------------
B----------------------------------------
G----------------------------------------
D----------------------------------------
A----------5--5-5--5-----------7--7-7--7-
E-2--2-2--------------5--5-5-------------

Chorus riff:
  A   E   D       Bm      A
E-5---7---5-------7-------5------
B-5---9---7-------7-------5------
G-6---9---7-------7-------6------
D-7---9---7-------9-------7------
A-7---7---5-------9-------7------
E-5---------------7-------5------
  1 2 3 4 1 2 3 4 1 2 3 4 1 2 3 4

Bridge riff:
  A       E       A       Bm
E-5-------7-------5-------7------
B-5-------9-------5-------7------
G-6-------9-------6-------7------
D-7-------9-------7-------9------
A-7-------7-------7-------9------
E-5---------------5-------7------
  1 2 3 4 1 2 3 4 1 2 3 4 1 2 3 4

Format:
Intro riff x1
Verse riff x4
Chorus riff x2
Verse riff x4
Chorus riff x2
Bridge riff x2
Verse riff x4
Chorus riff x2
Verse riff (repeats until fade)

Lyrics:

I wish I could define
All the thoughts that cross my mind
They seem too big for me to choose
I don't know which one's to lose
When I've fallen down so far
I think I'll never feel your light
Bouncing off me and
Shining down here from your eyes

Help me
Figure out the difference
Between right and wrong
Weak and strong
Day and night
Where I belong
Help me
Make the right decisions
Know which way to turn
Lessons to learn
And just what my purpose is here

It's like I got the signals crossed
With messages I can't decode
Half asleep, never wide awake ya know.
Complete overload
I got so much information here
And nothing I can really grasp
I should know the truth
But I'm too afraid so I have to ask

Help me (help me)
Figure out the difference
Between right and wrong
Weak and strong
Day and night
Where I belong
Help me (help me)
Make the right decisions
Know which way to turn
Lessons to learn
And just what my purpose is here

Wanna know you more than anything
I need you
In my every dream you're there for me
You love me
For who I am
No angel
Just an ordinary man

Help me figure out
Why I'm stuck in the middle 
Tryin to understand
Why I can't
Why does such a riddle
Got my eyes crossed 
Thinkin so hard
And I know I'm missin the mark

Can you help me sort out
All this information 
I'm just rackin my brain 
Payin attention 
But I'm still lost
And at all costs
I 
I gotta know (I GOTTA KNOW!! KNOW!!)
            
Submit corrections


        Help Me lessons Hard to play? Try these video lessons and learn fast Help Me lessons
        
↑ Back to top | Tablatures and chords for acoustic guitar and electric guitar, ukulele, drums are parodies/interpretations of the original songs. You may use it for private study, scholarship, research or language learning purposes only