» » »

New Found Glory - Listen To Your Friends Ukulele

Artists:  A B C D E F G H I J K L M N O P Q R S T U V W X Y Z # 

Listen To Your Friends Ukulele

(ver. 1) Click to play this song!
New Found Glory
 Rating:
4/5 (4 votes)

 Listen To Your Friends lessons Tabs too difficult? Try these video lessons and learn fast
 
                Alnum:Now Without a Fight

For any comments, questions, or suggestions; just post a comment,PM, or mail me.

Pilipino Rules!!Mabuhay ang Pilipinas\m/,

Please check out my band's profile as well=)


Gtr.Legends:
/\ - slide
x - dead string
. - palm muting
~ - let it ring

Gtr.Tuning:Standard(Normal)

Intro prt.1
e|------------------|
B|------------------|
G|-66------66--44---|
D|-66-77---66--44---|
A|-44-77---44--22---|
E|----55------------|

Intro prt.2
Gtr.1
e|----------------------------------------------------------|
B|----------------------------------------------------------|
G|----------66------66--44-------------66------66--44-------|
D|-2222222--66-77---66--44----2222222--66-77---66--44--2~---|
A|-2222222--44-77---44--22----2222222--44-77---44--22--2~---|
E|-0000000-----55-------------0000000-----55-----------0~---|

Gtr.2
e|--------------------------------------------
B|--------------------------------------------
G|-9999-8/9-8/9-8/9---1313-1414---1313-1111---
D|-xxxx-x-x-x-x-x-x---xxxx-xxxx---xxxx--x-x---
A|-7777-6/7-6/7-6/7---1111-1212---1111--9-9---
E|--------------------------------------------
                      .... ....   ....  . .

--------------------------------------------4444-0000-2222-0000---4444-0000--2222-0000---|
--------------------------------------------5555-5555-5555-5555---5555-5555--5555-5555---|
-9999--8/9-8/9/11---1313-1414---1313-1111------------------------------------------------|
-xxxx--x-x-x-x--x---xxxx-xxxx---xxxx--x-x------------------------------------------------|
-7777--6/7-6/7/-9---1111-1212---1111--9-9------------------------------------------------|
-----------------------------------------------------------------------------------------|
                    .... ....   ....  . .

Verse 1:I wake up in a waiting....
Gtr.1
e|------------------------------------------------------|
B|------------------------------------------------------|
G|-6666666-----------------66666------------------------|
D|-6666666-777777-222222---66666-77777777777777777777---|
A|-4444444-777777-222222---44444-77777777777777777777---|
E|---------555555-000000---------55555555555555555555---|
   ....... ...... ......   ..... ....................

Gtr.2
e|-4444-0000-2222-0000---4444-0000--2222-0000---|
B|-5555-5555-5555-5555---5555-5555--5555-5555---| Repeat a lot of times...
G|----------------------------------------------| Listen to the song carefully...
D|----------------------------------------------|
A|----------------------------------------------|
E|----------------------------------------------|

Pre-Chorus:Oh..just then I found...
e|-------------         ----------------|
B|-------------         ----------------|
G|-66-22-44---- Repeat  -66-22-444444---|
D|-66-22-44-22- 3x then -66-22-444444---|
A|-44-00-22-22-         -44-00-222222---|
E|----------00-         ----------------|

Chorus:I should have listen to my friends...
Play Intro prt.2 

Verse 2:
Play Verse 1

Repeat Pre-Chorus:

Repeat Chorus:

Bridge(Guitar Solo??):
Gtr.1
e|------------------------------------|
B|------------------------------------|
G|-9999-9999-6666-4444-222222222222---|
D|-9999-9999-6666-4444-222222222222---|
A|-7777-6666-4444-2222-000000000000---|
E|------------------------------------|

Gtr.2
e|---------------------------------------------------------------------------|
B|---------------------------------------------------------------------------|
G|--------------------------------9b-9/11------------------------------------|
D|-6/7--7\6--6\4--4\2---6/7--7\6----------9~----6/7--7\6--6\4--4\2--2/4------|
A|----------------------------------------------------------------------4~---|
E|---------------------------------------------------------------------------|

Verse 3:
Bass w/ gtr. fill
e|---------------------------------------|
B|---------------------------------------|
G|----------------444444444444444--------|
D|-2/4------------444444444444444-5555---|
A|-----4~---2~----222222222222222-5555---|
E|--------------------------------3333---|

Last Chorus:
Repeat Chorus(listen carefully..there's a palm mute)


e|------------------------------------------------------------------|
B|------------------------------------------------------------------|
G|---------66----66-44--66----66-44--66----66-44--66----66-44-------|
D|-222222--66-77-66-44--66-77-66-44--66-77-66-44--66----66-44--2~---|
A|-222222--44-77-44-22--44-77-44-22--44-77-44-22--44-77-44-22--2~---|
E|-000000-----55-----------55-----------55-----------55--------0~---|
   ......  

End...


Listen to your Friends Lyrics:

Verse 1:
I wake up in a waiting room
With the taste of blood
And a clouded view
I notice there is a tear in my jeans
The sleeves of my shirt have been ripped from their seams
My memory is a little bit blank
The thought of my name doesn't seem to come back
And I turn and scream "what am I here for?"
The nurses yell "you were left at the door"
I'm a stranger, someone left me for dead
And I need to decide what to do next

Pre-Chorus:
Oh
Just then I found a note in my pocket, it read:
"I don't ever wanna see you again" and I guess
That explains why I can't remember the rest of the night

Chorus:
I should have listened to my friends
I should have listened to them
When they told me her bad intentions

Verse 2:
I remember the string of events
When a grabbed your hand
I know that you went in for a kiss
And I told you "that's not only what this is"
You held me at the end of my seat
And you had that look, the look of defeat
You wish that you could start this over
Instead you left me in a coma

Repeat Pre-Chorus:

I should have listened to my friends
I should have listened to them
When they told me her bad intentions

I should have listened to my friends
I should have listened to them
When they told me her bad intentions

Oh
Just then I found a note in my pocket, it read:
"I don't ever wanna see you again" and I guess
That explains why I can't remember the rest of the night
Yeah

I should have listened to my friends
(and I don't ever wanna see you again)
I should have listened to them
When they told me her bad intentions

I should have listened to my friends
(and I don't ever wanna see you again)
(LISTEN TO YOUR FRIENDS!)
I should have listened to them
When they told me her bad intentions

When they told me her bad intentions [x2]
            
Submit corrections


        Listen To Your Friends lessons Hard to play? Try these video lessons and learn fast Listen To Your Friends lessons
        
↑ Back to top | Tablatures and chords for acoustic guitar and electric guitar, ukulele, drums are parodies/interpretations of the original songs. You may use it for private study, scholarship, research or language learning purposes only