» » »

New Found Glory - Iris Ukulele

Artists:  A B C D E F G H I J K L M N O P Q R S T U V W X Y Z # 

Iris Ukulele

(ver. 1) Click to play this song!
New Found Glory
 Rating:
4/5 (4 votes)

 Iris lessons Tabs too difficult? Try these video lessons and learn fast
 
                Lucena,Phils...
Cp #-09283150081
SHC(BSN) Lucena

new found glory-iris


GtrI-( e b g d A E)

GtrII-( e b g d A E)

Intro-
GtrI

|-------------------------------------------------------------|
|-------------------------------------------------------------|
|-------------------------------------------------------------|2x
|-999999-77777-7777---5555555-5555555-5555--------------------|
|-999999-77777-7777---5555555-5555555-5555--------------------|
|-777777-55555-5555---3333333-3333333-3333--------------------|



GtrII
|-------------------------------------------------------------|
|-------------------------------------------------------------|
|-777777-66666-6/7-7--1212121212-111111111--7777--------------|
|-xxxxxx-xxxxx-x-x-x--x-x-x-x-x--x-x-x-x-x--xxxx--------------|2x
|-555555-44444-4/5-5--1010101010-9-9-9-9-9--5555--------------|
|-------------------------------------------------------------|

Verse-
GtrI
|-x-xxx-x-xxx-x-xxx-xxx-   ---x-xxx-x-xxx-x-xxx-xxx-----------|
|-3-333-3-333-3-333-333-   ---3-333-3-333-3-333-333-----------|
|-2-222-2-222-2-222-222-   ---2-222-2-222-2-222-222-----------|
|-0-000-x-xxx-x-xxx-xxx-3x ---x-xxx-x-xxx-x-xxx-xxx-----------|
|-------0-000-x-xxx-xxx-   ---2-222-0-000-x-xxx-xxx-----------|
|-------------3-333-333-   ---------------3-333-333-----------|

2.
GtrI
|-x-xxx-x-xxx-x-xxx-xxx-   
|-3-333-3-333-3-333-333-   
|-2-222-2-222-2-222-222-   
|-0-000-x-xxx-x-xxx-xxx-3x 
|-------0-000-x-xxx-xxx-   
|-------------3-333-333-   


GtrI& II
|-----------------------------------------------------------|
|-----------------------------------------------------------|
|-----------------------------------------------------------|
|-9-99-99-777777-5555555555---------------------------------|
|-9-99-99-777777-5555555555---------------------------------|
|-7-77-77-555555-3333333333---------------------------------|
    **     ***    *********

Chorus-
GtrI& II
|-------------------------------------------------------------|
|-------------------------------------------------------------|
|-------------------------------------------------------------|
|--9-9-9-9--7-7-7-7--5-5-5-5---9-9-9-9--7-7-7-7--5-5-5-5------|2x
|--9-9-9-9--7-7-7-7--5-5-5-5---9-9-9-9--7-7-7-7--5-5-5-5------|
|--7-7-7-7--5-5-5-5--3-3-3-3---7-7-7-7--5-5-5-5--3-3-3-3------|


Repeat Intro-Verse2.-Chorus


Solo-
GtrI
|-------------------------------------------------------------|
|-------------------------------------------------------------|
|-------------------------------------------------------------|
|--9999-7777-7-7--555555-555555--555-5------------------------|
|--9999-7777-7-7--555555-555555--555-5------------------------|
|--7777-5555-5-5--333333-333333--333-3------------------------|
   ***  ***


|-------------------------------------------------------------|
|-------------------------------------------------------------|
|-------------------------------------------------------------|
|--9999-7777-7-7--555555-555555--555-5------------------------|
|--9999-7777-7-7--555555-555555--555-5------------------------|
|--7777-5555-5-5--333333-333333--333-3------------------------|
   ***  ***

|-------------------------------------------------------------|
|-------------------------------------------------------------|
|-------------------------------------------------------------|
|--9999-7777-7-7----------------------------------------------|
|--9999-7777-7-7----------------------------------------------|
|--7777-5555-5-5----------------------------------------------|


|-------------------------------------------------------------|
|-------------------------------------------------------------|
|-------------------------------------------------------------|
|-5555555-44444444-5555555555-999999999-----------------------|
|-5555555-44444444-5555555555-999999999-----------------------|
|-3333333-22222222-3333333333-777777777-----------------------|

|-------------------------------------------------------------|
|-------------------------------------------------------------|
|-------------------------------------------------7~----------|
|--555555555-444444444-99999999-9999999999--------7~----------|
|--555555555-444444444-99999999-9999999999--------5~----------|
|--333333333-222222222-77777777-7777777777--------------------|


GtrII
|-------------------------------------------------------------|
|-------------------------------------------------------------|
|-7777-6666--6-7-1212121212--1111111111-1212-7----------------|
|-xxxx-xxxx--x-x-x-x-x-x-x---x-x-x-x-x--x-x--x----------------|
|-5555-4444--4-5-1010101010--9-9-9-9-9--1010-5----------------|
|-------------------------------------------------------------|


|-------------------------------------------------------------|
|-------------------------------------------------------------|
|-7777-6666--6-7-1212121212--1111111111-1212-7----------------|
|-xxxx-xxxx--x-x-x-x-x-x-x---x-x-x-x-x--x-x--x----------------|
|-5555-4444--4-5-1010101010--9-9-9-9-9--1010-5----------------|
|-------------------------------------------------------------|
  ***


|-------------------------------------------------------------|
|-------------------------------------------------------------|
|-9999-14141414--2~-/7~~~--/6~--2~-/7~~~--/9~--/11~~~---------|
|-xxxx-x-x-x-x------------------------------------------------|
|-7777-12121212-----------------------------------------------|
|-------------------------------------------------------------|


|-------------------------------------------------------------|
|-------------------------------------------------------------|
|-2~-/7~~~--/11~/6~~~--/2\4~~~-----/-16~~~~~~~~~~~~~~---------|
|-------------------------------------------------------------|
|-------------------------------------------------------------|
|-------------------------------------------------------------|


((silence))Dist off

piano
|----17----------17-------------------------------------------|
|-15----15-14--15---------------------------------------------|
|-------------------------------------------------------------|
|-------------------------------------------------------------|
|-------------------------------------------------------------|
|-------------------------------------------------------------|


dist on!
GtrI& II
|--~-----------------------------------------------------------|
|--~-----------------------------------------------------------|
|-5+-----------------------------------------------------------|
|--~-----------------------------------------------------------|
|--~-----------------------------------------------------------|
|--~-----------------------------------------------------------|

Chorus-

GtrI& II
|-------------------------------------------------------------|
|-------------------------------------------------------------|
|-------------------------------------------------------------|
|--9-9-9-9--7-7-7-7--5-5-5-5---9-9-9-9--7-7-7-7--5-5-5-5------|2x
|--9-9-9-9--7-7-7-7--5-5-5-5---9-9-9-9--7-7-7-7--5-5-5-5------|
|--7-7-7-7--5-5-5-5--3-3-3-3---7-7-7-7--5-5-5-5--3-3-3-3------|


|-------------------------------------------------------------|
|-------------------------------------------------------------|
|-------------------------------------------------------------|
|--99--77--555-5-55--55-----99--77--555-5-55--55--------------|
|--99--77--555-5-55--55-----99--77--555-5-55--55--------------|
|--77--55--333-3-33--33-----77--55--333-3-33--33--------------|
           ***   *   *              ***   *   *


|-------------------------------------------------------------|
|-------------------------------------------------------------|
|-------------------------------------------------------------|
|--99--77--555-5-55--55-----99--77--5~~~~~~~~~~~--------------|
|--99--77--555-5-55--55-----99--77--5~~~~~~~~~~~--------------|
|--77--55--333-3-33--33-----77--55--3~~~~~~~~~~~--------------|
           ***   *   *              

+=harmonics
            
Submit corrections


        Iris lessons Hard to play? Try these video lessons and learn fast Iris lessons
        
↑ Back to top | Tablatures and chords for acoustic guitar and electric guitar, ukulele, drums are parodies/interpretations of the original songs. You may use it for private study, scholarship, research or language learning purposes only