» » »

New Found Glory - Happy Being Miserable Tabs

Artists:  A B C D E F G H I J K L M N O P Q R S T U V W X Y Z # 

Happy Being Miserable Tabs

(ver. 1) Click to play this song!
New Found Glory
 Rating:
4.3/5 (28 votes)

 Happy Being Miserable lessons Tabs too difficult? Try these video lessons and learn fast
 
                MAIN RIFF 

  (x4)
e|------------------------------------------|
B|------------------------------------------|
G|-------11/12\11---9\7---------9/11---9\7--|
D|--9-9---x--x--x---x-x---5-5---x--x---x-x--|
A|--9-9---9/10\-9---7\5---5-5---7/-9---7\5--|
D|--9-9-------------------5-5---------------|

[Verse 1]

  (x1)
e|------------------------------------------|------------------------------------------|
B|------------------------------------------|------------------------------------------|
G|--4--4--4-4-4---------7--7--7-7-7----2-2--|--4--4--4-4-4---------7--7--7-7-7----2-2--|
D|--4--4--4-4-4---5-5---7--7--7-7-7----2-2--|--4--4--4-4-4---5-5---7--7--7-7-7----2-2--|
A|--2--2--2-2-2---5-5---5--5--5-5-5----0-0--|--2--2--2-2-2---5-5---5--5--5-5-5----0-0--|
D|--------------x-5-5----------------x------|--------------x-5-5----------------x------|


  (x1)
e|------------------------------------------|------------------------------------------|
B|------------------------------------------|------------------------------------------|
G|--4--4--4-4-4---------7--7--7-7-7---------|--4--4--4-4-4---------7--7--7-7-7----2-2--|
D|--4--4--4-4-4---5-5---7--7--7-7-7----4-4--|--4--4--4-4-4---5-5---7--7--7-7-7----2-2--|
A|--2--2--2-2-2---5-5---5--5--5-5-5----4-4--|--2--2--2-2-2---5-5---5--5--5-5-5----0-0--|
D|--------------x-5-5----------------x-4-4--|--------------x-5-5----------------x------|


[Chorus]

  (x4)
e|------------------------------------------|
B|------------------------------------------|
G|--7--7--7-7-7---------4--4--4-4-4----2-2--|
D|--7--7--7-7-7---5-5---4--4--4-4-4----2-2--|
A|--5--5--5-5-5---5-5---2--2--2-2-2----0-0--|
D|--------------x-5-5----------------x------|


MAIN RIFF

  (x2)
e|------------------------------------------|
B|------------------------------------------|
G|-------11/12\11---9\7---------9/11---9\7--|
D|--9-9---x--x--x---x-x---5-5---x--x---x-x--|
A|--9-9---9/10\-9---7\5---5-5---7/-9---7\5--|
D|--9-9-------------------5-5---------------|

[Verse 2]

  (x1)
e|------------------------------------------|------------------------------------------|
B|------------------------------------------|------------------------------------------|
G|--4--4--4-4-4---------7--7--7-7-7----2-2--|--4--4--4-4-4---------7--7--7-7-7----2-2--|
D|--4--4--4-4-4---5-5---7--7--7-7-7----2-2--|--4--4--4-4-4---5-5---7--7--7-7-7----2-2--|
A|--2--2--2-2-2---5-5---5--5--5-5-5----0-0--|--2--2--2-2-2---5-5---5--5--5-5-5----0-0--|
D|--------------x-5-5----------------x------|--------------x-5-5----------------x------|
 

  (x1)
e|------------------------------------------|------------------------------------------|
B|------------------------------------------|------------------------------------------|
G|--4--4--4-4-4---------7--7--7-7-7---------|--4--4--4-4-4---------7--7--7-7-7----2-2--|
D|--4--4--4-4-4---5-5---7--7--7-7-7----4-4--|--4--4--4-4-4---5-5---7--7--7-7-7----2-2--|
A|--2--2--2-2-2---5-5---5--5--5-5-5----4-4--|--2--2--2-2-2---5-5---5--5--5-5-5----0-0--|
D|--------------x-5-5----------------x-4-4--|--------------x-5-5----------------x------|
 

[Chorus]

  (x4)
e|------------------------------------------|
B|------------------------------------------|
G|--7--7--7-7-7---------4--4--4-4-4----2-2--|
D|--7--7--7-7-7---5-5---4--4--4-4-4----2-2--|
A|--5--5--5-5-5---5-5---2--2--2-2-2----0-0--|
D|--------------x-5-5----------------x------|
 

[Bridge]

  (x4)
e|-----------------|----------------|
B|-----------------|----------------|
G|--4-4------------|---4------------|
D|--4-4---4-5---5--|---4---4-5-4-2--|
A|--2-2---4-5---5--|---2---4-5-4-2--|
D|--------4-5---5--|-------4-5-4-2--|

[Solo]

e|------------------------------------------|
B|--7^-7-7---7^-7-7---7^-7-7---10^-10-10-8--|
G|---------7--------7--------7--------------|
D|------------------------------------------|
A|------------------------------------------|
D|------------------------------------------|

e|------------------------------------------|
B|--7^-7-7---7^-7-7---5^-5-5---5^-5-5-------|
G|---------7--------7--------7--------7-----|
D|------------------------------------------|
A|------------------------------------------|
D|------------------------------------------|

e|------------------------------------------|
B|--7^-7-7---7^-7-7---7^-7-7---10^-10-10-8--|
G|---------7--------7--------7--------------|
D|------------------------------------------|
A|------------------------------------------|
D|------------------------------------------|

e|---------------------------------|
B|--7-7---5^-5-5---5---------------|
G|------7--------7-----------------|
D|---------------------------------|
A|--------------------5-5-5-5------|
D|--------------------5-5-5-5--4^--|
 |                    P.M----|

FINAL CHORUS

 (x1)
e|---------|----------|---------|-----------------------|
B|---------|----------|---------|-----------------------|
G|--7---7--|---4---4--|--7---7--|--4--4--4-4-4----------|
D|--7---7--|---4---4--|--7---7--|--4--4--4-4-4----7-7---|
A|--5---5--|---2---2--|--5---5--|--2--2--2-2-2--x-7-7---|
D|---------|----------|---------|---------------x-7-7---|

 (x1)
e|------------------------------------------|
B|------------------------------------------|
G|--7--7--7-7-7---------4--4--4-4-4----2-2--|
D|--7--7--7-7-7---5-5---4--4--4-4-4----2-2--|
A|--5--5--5-5-5---5-5---2--2--2-2-2----0-0--|
D|--------------x-5-5----------------x------|

 (x1)
e|--------------------|
B|--------------------|
G|--------------------|
D|--0--0-0-0-0-0-0-5--|
A|--0--0-0-0-0-0-0-5--|
D|--0--0-0-0-0-0-0-5--|
 |     P.M--------|

  (x4)
e|------------------------------------------|
B|------------------------------------------|
G|--7--7--7-7-7---------4--4--4-4-4----2-2--|
D|--7--7--7-7-7---5-5---4--4--4-4-4----2-2--|
A|--5--5--5-5-5---5-5---2--2--2-2-2----0-0--|
D|--------------x-5-5----------------x------|

[Outro]

  (x1)
e|------------------------------------------|
B|------------------------------------------|
G|-------11/12\11---9\7---------9/11---9\7--|
D|--9-9---x--x--x---x-x---5-5---x--x---x-x--|
A|--9-9---9/10\-9---7\5---5-5---7/-9---7\5--|
D|--9-9-------------------5-5---------------|

  (x1)
e|------------------------------------------|
B|------------------------------------------|
G|-------11/12\11---9-----------------------|
D|--9-9---x--x--x---x---0-------------------|
A|--9-9---9/10\-9---7---0-------------------|
D|--9-9-----------------0-------------------|            
Submit corrections


        Happy Being Miserable lessons Hard to play? Try these video lessons and learn fast Happy Being Miserable lessons
        
↑ Back to top | Tablatures and chords for acoustic guitar and electric guitar, ukulele, drums are parodies/interpretations of the original songs. You may use it for private study, scholarship, research or language learning purposes only