» » »

New Found Glory - Forget Everything Tabs

Artists:  A B C D E F G H I J K L M N O P Q R S T U V W X Y Z # 

Forget Everything Tabs

(ver. 1) Click to play this song!
New Found Glory
 Rating:
4/5 (4 votes)

 Forget Everything lessons Tabs too difficult? Try these video lessons and learn fast
 
                Good song (secret song overseas)

e|-----------------------------|
B|-----------------------------|
G|--------7-7-7--9-9-9--7-7-7--|
D|-7-7-7--7-7-7--9-9-9--7-7-7--|(2X)
A|-7-7-7--5-5-5--7-7-7--5-5-5--|
E|-5-5-5-----------------------|

Verse:

e|----------------------|
B|----------------------|
G|----------------------|
D|-7-7-7--4-4-4--2-2-2--|(4X)
A|-7-7-7--4-4-4--2-2-2--|
E|-5-5-5--2-2-2--0-0-0--|

Pre-Chorus:

e|-----------------------|
B|-----------------------|
G|--------------7--6-----|
D|--------------7--6--2--|
A|-4--5--4--2---5--4--2--|
E|--------------------0--|

Chorus:

e|-----------------------------|
B|-----------------------------|
G|--------7-7-7--9-9-9--7-7-7--|
D|-7-7-7--7-7-7--9-9-9--7-7-7--|(4X)
A|-7-7-7--5-5-5--7-7-7--5-5-5--|
E|-5-5-5-----------------------|

Bridge:

e|-----------------------------|
B|-----------------------------|
G|--------6-6-6--7-7-7--9-9-9--|
D|-9-9-9--6-6-6--7-7-7--9-9-9--|(2X)
A|-9-9-9--4-4-4--5-5-5--7-7-7--|
E|-7-7-7-----------------------|
            
Submit corrections


        Forget Everything lessons Hard to play? Try these video lessons and learn fast Forget Everything lessons
        
↑ Back to top | Tablatures and chords for acoustic guitar and electric guitar, ukulele, drums are parodies/interpretations of the original songs. You may use it for private study, scholarship, research or language learning purposes only