» » »

New Found Glory - Everything You Do Tabs

Artists:  A B C D E F G H I J K L M N O P Q R S T U V W X Y Z # 

Everything You Do Tabs

(ver. 1) Click to play this song!
New Found Glory
 Rating:
4/5 (4 votes)

 Everything You Do lessons Tabs too difficult? Try these video lessons and learn fast
 
                intro:

e|-1---1----1----2--4--2-----------------------4---4---
b|----2---2----------------2---4----4-----4------------
g|---------------------------5----5-----5--------------




e|------------------------------------------------------------
b|---2--------2--------2-----------2----4---6----4----4-------
g|--------3--------3--------3-----------------------5----5----


verse

e|-----------------------------|
B|-----------------------------|
G|------6-----6---------------|
D|--6--6--4--6---------------|
A|--6--4--4--4---------------|
E|--4------2------------------|

pre chorus

e|--------------------------|
B|--------------------------|
G|--7------7----------------|
D|--7---6--7----------------|
A|--5---6--5----------------|
E|------4-------------------|



chorus

e|-----------------------|
B|-----------------------|
G|------6----------------|
D|--6---6---6------------|
A|--6---4---6------------|
E|--4-------4------------|
            
Submit corrections


        Everything You Do lessons Hard to play? Try these video lessons and learn fast Everything You Do lessons
        
↑ Back to top | Tablatures and chords for acoustic guitar and electric guitar, ukulele, drums are parodies/interpretations of the original songs. You may use it for private study, scholarship, research or language learning purposes only