» » »

New Found Glory - Everything I Do Tabs

Artists:  A B C D E F G H I J K L M N O P Q R S T U V W X Y Z # 

Everything I Do Tabs

(ver. 1) Click to play this song!
New Found Glory
 Rating:
4/5 (4 votes)

 Everything I Do lessons Tabs too difficult? Try these video lessons and learn fast
 
                Intro

e---1-----1-----1------2--4--2--1---------------------------4---------|
B-----2-----2-----2-------------------4-----4-----4-------4-----4----1|
G----------------------------------------5-----5----5-----------------|
D---------------------------------------------------------------------|
A---------------------------------------------------------------------|
E---------------------------------------------------------------------|

e------------------------2---------1----------------------------------|
B---2-----2-----2------2-----2--------------4----4--------------------|
G-----3-----3-----3------------------------------5--------------------|
D---------------------------------------------------------------------|
A---------------------------------------------------------------------|
E---------------------------------------------------------------------|

Verses

e|--------------------------------------------------------------------|
B|--------------------------------------------------------------------|
G|-----------------6-----------------6--------------------------------|
D|-----------------6-----------------6--8---------------6-------------|
A|-----------------4-----------------3--8---------------6-------------|
E|--------------------------------------6---------------4-------------|
   
e|--------------------------------------------------------------------|
B|--------------------------------------------------------------------|
G|----------------------------------6---------------------------------|
D|--------------4-------------------6------6-6------------------------|
A|--------------4-------------------4------6-6------------------------|
E|--------------2--------------------------4-4------------------------|

Chorus

e|--------------------------------------------------------------------|
B|--------------------------------------------------------------------|
G|-------------6---------------6----------6----------6-6--------------|
D|-------------6---------------6----------6----------6-6--------------|
A|-------------4---------------3----------4----------4-4--------------|
E|--------------------------------------------------------------------|  theres no love...
e|---------------------------------------------------------------------------|
B|---------------------------------------------------------------------------|
G|-4-4-4-4-4-4-4-4-4-4-4-4---------------------------4-4-4-4-4-4-4-4-4-4-4-4-|
D|-4-4-4-4-4-4-4-4-4-4-4-4--2-2-2-2-2-2-2-2-2-2-2-2--4-4-4-4-4-4-4-4-4-4-4-4-|
A|-2-2-2-2-2-2-2-2-2-2-2-2--2-2-2-2-2-2-2-2-2-2-2-2--2-2-2-2-2-2-2-2-2-2-2-2-|
E|--------------------------0-0-0-0-0-0-0-0-0-0-0-0--------------------------|

e|---------------------------------------------------------------------------|
B|---------------------------------------------------------------------------|
G|--------------------------6-6-6-6-6-6-6-6-6-6-6----------------------------|
D|-4-4-4-4-4-4-4-4-4-4-4-4--6-6-6-6-6-6-6-6-6-6-6--6-6-6-6-6-6-6-6-6-6-6-----|
A|-4-4-4-4-4-4-4-4-4-4-4-4--4-4-4-4-4-4-4-4-4-4-4--6-6-6-6-6-6-6-6-6-6-6-----|
E|-2-2-2-2-2-2-2-2-2-2-2-2-------------------------4-4-4-4-4-4-4-4-4-4-4-----|

e|---------------------------------------------------------------------------|
B|---------------------------------------------------------------------------|
G|-8-8-8-8-8-8-8-8-8-8-8-8--6--6---------------------------------------------|
D|-8-8-8-8-8-8-8-8-8-8-8-8--6--6--1--3--------1--3---------------------------|
A|-6-6-6-6-6-6-6-6-6-6-6-6--4--4--------1--4--------1--4---------------------|
E|---------------------------------------------------------------------------|

Solo

e|---------------------------------9---9-------------------------------------|
B|---6-66--------------------6-9---9-BEND-9-h11-9----------------------------|
G|--------8-6---6--8-6--6-6-----------------------------------10--10 \8-6----|
D|-------------8--------8----------------------------------------------------|
A|---------------------------------------------------------------------------|
E|---------------------------------------------------------------------------|
            
Submit corrections


        Everything I Do lessons Hard to play? Try these video lessons and learn fast Everything I Do lessons
        
↑ Back to top | Tablatures and chords for acoustic guitar and electric guitar, ukulele, drums are parodies/interpretations of the original songs. You may use it for private study, scholarship, research or language learning purposes only