» » »

New Found Glory - Dont Let This Be The End Tabs

Artists:  A B C D E F G H I J K L M N O P Q R S T U V W X Y Z # 

Dont Let This Be The End Tabs

(ver. 1) Click to play this song!
New Found Glory
 Rating:
4/5 (4 votes)

 Dont Let This Be The End lessons Tabs too difficult? Try these video lessons and learn fast
 
                Intro

Guitar 1 (With Wah-Wah)
1|---------------------------------------------------|
2|----8-88-----8-88---------------8-88-------5b6r5---|
3|----------5--------5---5-5^7----------5----------7-|
4|---------------------------------------------------|
5|---------------------------------------------------|
6|---------------------------------------------------|

Guitar 2
1|--------------------------------------------------------------|
2|--------------------------------------------------------------|
3|--------------------------------------------------------------|
4|----2--22---3-----2--22---3---3/5----2-22---3---2----3--3/5---|
5|----3--33---3-----3--33---3---3/5----3-33---3---3----3--3/5---|
6|----0--00---1-----0--00---1---1/3----0-00---1--------1--1/3---|
         ..            ..                ..
Verse
1|--------------------------------------------------------------|
2|--------------------------------------------------------------|
3|-----------------------------------------------------5-5-5----|
4|----2--22---3-----2--22---3----2-22---3----2-22---3--5-5-5--5-|
5|----3--33---3-----3--33---3----3-33---3----3-33---3--3-3-3--5-|
6|----0--00---1-----0--00---1----0-00---1----0-00---1---------3-|


Chorus

1|---------------------| 
2|---------------------|
3|-5-5-5-----7-7-7-----|
4|-5-5-5--5--7-7-7--3--| x3
5|-3-3-3--5--5-5-5--3--|
6|--------3---------1--|

then

1|------------------|
2|------------------|
3|-5-5-5------------|
4|-5-5-5--5-5-5--3--| 
5|-3-3-3--5-5-5--3--|
6|--------3-3-3--1--|


Breakdown

1|-------------|
2|-------------|
3|-10-/-9-/-7--|
4|-------------|
5|-8-/-7-/-5---|
6|-------------|

Bridge
1|-------------------------|       |----------------------------|
2|-------------------------|       |----------------------------|
3|--7-7-7-7----------------|       |----------------------------|
4|--7-7-7-7--2-2-2---3-3-3-| x3    |-5-5-5-5-5-5---6-6-6-6-6-6--|
5|--5-5-5-5--3-3-3---3-3-3-|       |-5-5-5-5-5-5---6-6-6-6-6-6--|
6|-----------0-0-0---1-1-1-|       |-3-3-3-3-3-3---4-4-4-4-4-4--|

Outro ('Please don't let this be the end...')

1|---------------------------|
2|---------------------------|
3|-5-5-5---------------------|
4|-5-5-5--5-5-5--3-3-3-3-3-3-| 
5|-3-3-3--5-5-5--3-3-3-3-3-3-|
6|--------3-3-3--1-1-1-1-1-1-|


Intro x2
Verse x2
Chorus
Intro
Verse
Chorus x2
Breakdown
Bridge
Chorus
Outro x8
            
Submit corrections


        Dont Let This Be The End lessons Hard to play? Try these video lessons and learn fast Dont Let This Be The End lessons
        
↑ Back to top | Tablatures and chords for acoustic guitar and electric guitar, ukulele, drums are parodies/interpretations of the original songs. You may use it for private study, scholarship, research or language learning purposes only